Song name
# A B C D E F G H I J K L M N O P Q R S T U V W X Y Z

Nostalgie - Black Rain tab

-------------------------------------------------------------------------------
                             Nostalgie - Black Rain
-------------------------------------------------------------------------------
Tabbed by: Gorundur


Tuning: (to get the right sound, tune your guitar up a quarter tone a'= 450 hz)

e|----------------|----------------|---------------|----------------|
B|------4------4--|------4------4--|------4-----4--|----4------4----|
G|----4------4----|----4------4----|----4-----4----|--4------4------|
D|--6------6------|--6------6------|--5------5-----|-5------5-------|
A|----------------|----------------|---------------|----------------|
E|----------------|----------------|---------------|----------------| x6

e|----------------|
B|----------------|
G|----------------|
D|--6-------------|
A|----------------|
E|----------------|

e|----------------|----------------|---------------|----------------|
B|----------------|----------------|---------------|----------------|
G|------4-----4---|------4-----4---|------4-----4--|------4-----4---|
D|----6-----6-----|----6-----6-----|----6-----6----|----6-----6-----|
A|--7-----7-------|--6-----6-------|--7-----7------|--6-----6-------|
E|----------------|----------------|---------------|----------------| x8

e|----------------|
B|----------------|
G|--(4)-----------|
D|--(6)-----------|
A|--(6)-----------|
E|----------------|

Repeat this sequence several times until the rain outro.
Tap to rate this tab
# A B C D E F G H I J K L M N O P Q R S T U V W X Y Z