Song name
# A B C D E F G H I J K L M N O P Q R S T U V W X Y Z

Nostra Love - Annu En Lordagkvall tab

Nostra Love

"Ännu en Lördagkväll" (Acoustic version) By: Erka
Watch the Original song at http://www.youtube.com/watch?v=msHnk6tWZRA 

I know that it is'nt completely exactly like the original but this is how i play 
it so.... ENJOY! :D

Intro:
  Am         Am        F         F        C         C
e[------------------------------------------------------------]
B[----1---------1---------1---------1---------1---------1-----]
G[-2-2-2-2---2-2-2-2---2-2-2-2---2-2-2-2---0-0-0-0---0-0-0-0--]
D[--2---2-----2---2-----3---3-----3---3-----2---2-----2---2---]
A[0---------0-----------------------------3---------3---------]
E[--------------------1---------1-----------------------------]
   G7         G7
e------1---------1-----]
B---0-0-0-0---0-0-0-0--]
G----0---0-----0---0---]
D----------------------]
A----------------------]
E--3---------3---------]

 Am                                     F
Ännu en lördagkväll mitt hjärta brinner
 C                         G7
Och all vår oro försvinner
 Am                                    F
Och kanske så får vi chansen att älska
 C                                   G7
Att älska med nån som betyder nånting
 Am                              F
Som betyder nån nånting för oss
 C                      G7
Ger oss annorlunda lekar
 Am                                     F
Ännu en lördagkväll mitt hjärta brinner
 C                        G7
Och all vår oro försvinner

Ref:
 Am                             F                        
Jag vill ha dig som du kommer jag vill ha dig som du är
 C                   G
Så kom med din lust här och nu
 Am                           F       
Innanför en brinnande himmel så ger jag dig allt
 C                        G
Bara en dåre skulle vilja dra sig ur

Vers 2:
Öppna din mun och visa dina tänder
Och bit mig hårt tills det bränner
Bit mig så hårt tills murar brister
Bit mig så hårt att jag aldrig nånsin aldrig nånsin
Kommer gå från dig till en annan kvinna

Ref 2:
Jag vill ha dig som du kommer jag vill ha dig som du är
Så kom med din lust här och nu
Innanför en brinnande himmel så ger jag dig allt
Bara en dåre skulle vilja dra sig ur
Så därför kan du lika gärna ge mig din kropp här och nu

Stick:
   F                C              Am         G
e[---1-1-1h3-1-----0-0-0-0-------------0-0-0--3-------3-----]
B[-1-1-1------1----1-1-1-1h3-1-1--1-1-1--1-1---3--3-1-3-----]
G[-2-2--------2----0-----------0--2-2-2--2-2----------------]
D[----------------------------------------------------------]
A[-----------------3-----------3--0-------------------------]
E[1-----------1-------------------------------3------3-3-1--]


e[-1-1-1h3-1---3-3-3-3-1-0--------1-1-1-1-1--0-1-0-3-------3-----------]
B[-1-1------1--1-1-1-1-1-1--1-1-1-1-1-1-1-1--3---3-3----1-1-1-0-1-3-1--]
G[-2-2------2--0------------2-2-2--------------------------------------]
D[---------------------------------------------------------------------]
A[-------------3-3----------0------------------------------------------] 
E[1---------1--------------------------------3-----3-------------------]   


Här in under finns en underbar dröm som jag vill dela
Här in under finns en låga som aldrig brinner ut
Och här under ytan är vi alla likadana
Här under ytan slutar vi aldrig tro på att kärleken aldrig dör

Solo:
e[--5-5-5-5--3-1-1-1--8-8-8-8--3-3-3-3--]
B[--5-5-5-5--3-1-1-1--8-8-8-8--3-3-3-3--]
G[--5-5-5-5--4-2-2-2--9-9-9-9--4-4-4-4--]
D[--------------------------------------]
A[--------------------------------------]
E[--------------------------------------]


Ref 3/Outro:
Jag vill ha dig som du kommer jag vill ha dig som du är
Så kom med din lust här och nu
Innanför en brinnande himmel så ger jag dig allt
Bara en dåre skulle vilja dra sig ur
Så därför kan du lika gärna ge mig din kropp här och nu
Tap to rate this tab
# A B C D E F G H I J K L M N O P Q R S T U V W X Y Z