Song name
# A B C D E F G H I J K L M N O P Q R S T U V W X Y Z

Nostra Morte - Viaje Al Centro Del Infierno tab

Intro:

e|--------------------------------------------------|
B|--------------------------------------------------|
G|--------------------------------------------------|
D|--------------------------------------------------|
A|--------------2-0---0-----------------2-4-2-0-----|
E|--2-4-5-4-2-0-----4---2-0-2-4-5-4-2-0---------4-0-|

e|--------------------------------------------------|
B|--------------------------------------------------|
G|--------------------------------------------------|
D|--------------------------------------------------|
A|--------------2-0---0-----5-4-2-4-2-0-2-0---0-----|
E|--2-4-5-4-2-0-----4---2-0-----------------4---4-0-|

e|-------------------------------------------------------------------------|
B|-------------------------------------------------------------------------|
G|-------------------------------------------------------------------------|
D|-------------------------------------------------------------------------|
A|--4~-6~-7~~---2-4-2-0-----4-6-7-9-777777-999999-101010101010101010101010-|
E|--2~-4~-5~~-----------4-0-2-4-5-7-555555-777777-8-8-8-8-8-8-8-8-8-8-8-8--|

e|-------------------------------------------------------------------------|
B|-------------------------------------------------------------------------|
G|-------------------------------------------------------------------------|
D|-------------------------------------------------------------9~~~--------|
A|--4~-6~-7~~---2-4-2-0-----4-6-7-9-101010101010-121212121212--7~~~--------|
E|--2~-4~-5~~-----------4-0-2-4-5-7-8-8-8-8-8-8--101010101010--0~~~--------|

Verso:

F#m - E - D - C#5 (x2)

F#m - G# - A - F#-G#-A-B - A - B - C
F#m - G# - A - F#-G#-A-B - C - D - E

F#m - E - D - C#5 (x2)

Coro:

F#m - F#m - D - C#5 (x2)

Post-coro:

F#m - A - D - C#5-F (x2)

F#m - F - F# - D-B-A-G#-F#m (x2)

(Verso)
(Coro)

Página oficial de Nostra Morte en MySpace:

http://www.myspace.com/nostramorte

Kyriel Vlad Daaé

vladi-sama@hotmail.com

http://www.facebook.com/kyrielvladdaae
Tap to rate this tab
# A B C D E F G H I J K L M N O P Q R S T U V W X Y Z