Song name
# A B C D E F G H I J K L M N O P Q R S T U V W X Y Z

Not Half Bad - Newports tab

Newports
Not Half Bad
No Thanks EP

Intro/ lead bit

|-12p9-------|
|------12p10-|
|------------|
|------------|
|------------|  X4
|------------|

|--------|
|-10p7---|
|--------|
|--------|
|--------|   X8
|--------|

 Repeat as necessary

Chorus/Verse
|----------------|
|----------------|
|-2--7-----7-----|
|-2--7--4--7-----|
|-0--5--4--5-----|
|-------2--------| You'll figure out the strumming.

                 Note: In the second verse, hit the root of each powerchord during the 
changes. You can strum it too, both sound good.

Solo
|----------------------------------------------------------------------------------------------|
|---------------------2------------------------5-2-----------------------2-----5-2-5-7-5-------|
|-2-2-4--2-2-4--2-2-4---4--2-2-4--2-2-4--2-2-4------2-2-4--2-2-4--2-2-4----4-------------------|
|----------------------------------------------------------------------------------------------|
|----------------------------------------------------------------------------------------------|
|----------------------------------------------------------------------------------------------|

|----------------------------------------------------------------------------------------------|
|---------------------5------------------------2------------------------2-----5-7-5------------|
|-2-2-4--2-2-4--2-2-4---4--2-2-4--2-2-4--2-2-4---4--2-2-4--2-2-4--2-2-4---4--------------------|
|----------------------------------------------------------------------------------------------|
|----------------------------------------------------------------------------------------------|
|----------------------------------------------------------------------------------------------|
Tap to rate this tab
# A B C D E F G H I J K L M N O P Q R S T U V W X Y Z