Song name
# A B C D E F G H I J K L M N O P Q R S T U V W X Y Z

Not Katies - 2 Halves Of 2 tab

intro(chourus aswell)
e|----------------------------------------------------------------------|
b|----------------------------------------------------------------------|
g|---x-x---5--7--5--7--12--10--12--10--10--9--7--9--7--5--12--5---------|  x2
d|---x-x---5--7--5--7--12--10--12--10--10--9--7--9--7--5--12--5---------|
a|---x-x---3--5--3--5--10--8---10--8---8---7--5--7--5--3--10--3---------|
e|----------------------------------------------------------------------|

verse
e|----------------------------------------------------------------------|
b|----------------------------------------------------------------------|
g|---5--5--5--5---------------------------------------------------------|  x2
d|---5--5--5--5--3--3--3--3--7--7--7--7--5--5--5--5---------------------|
a|---3--3--3--3--3--3--3--3--7--7--7--7--5--5--5--5---------------------|
e|---------------1--1--1--1--5--5--5--5--3--3--3--3---------------------|

verse 2
e|----------------------------------------------------------------------|
b|----------------------------------------------------------------------|
g|---4-5---4-5---4-5---4-5----------------------------------------------|  x4
d|----------------------------------------------------------------------|
a|----------------------------------------------------------------------|
e|----------------------------------------------------------------------|

order

intro
verse
chourus
verse
chourus
verse 2
chourus
Tap to rate this tab
# A B C D E F G H I J K L M N O P Q R S T U V W X Y Z