Song name
# A B C D E F G H I J K L M N O P Q R S T U V W X Y Z

Nothing Ever Stays - The Revenge Of Holden Caufield tab

Version one was right in the keys but the notes dident ring out like you hear in 
the song, so i dropped them closer to the begining of the neck, and it sounds 
perfect. 100% sure on this tab except for one part - The chord changes in the chorus.

Intro -
e----------------------------------------------------------------|
b----------------2------------3---0------------------------------|
g------2-----4----------2---------------2----4-2-----1--1h2p1----|X5
d--4-4---4-4---4---0-0----0-0---0----2-2--2-2---0-2-2-2-------4-2|
a----------------------------------------------------------------|
e----------------------------------------------------------------|

Chorus
e-2--------------------5            |5            |x
b-2--------------------5            |5            |x
g-2----- x2 measures --7 X2 Measures|6 X2measures |0 X2 measures 
d-4--------------------7            |7            |2 
a-4--------------------5            |7            |2
e-2--------------------5            |5            |0


e-2--------------------5            |5            |x---------------------|
b-2--------------------5            |5            |x---------------------|
g-2----- x2 measures --7 X2 Measures|6 X2measures |0-0-x-0-0-x-x-0-0-0-0-|
d-4--------------------7            |7            |2-2-x-2-2-x-x-2-2-2-2-|
a-4--------------------5            |7            |2-2-x-2-2-x-x-2-2-2-2-|
e-2--------------------5            |5            |0-0-x-0-0-x-x-0-0-0-0-|


Intro X1

Verse Part A

e------------------------------------------------------------------|
b----0------0-----0----2-----2-----2----2-----2----2---0-----0----0|
g-------2-----2----------2-----2----------2-----2--------1-----1---|X1
d--4------4-----4----0-----0-----0---2------2-----2---2-----2---2--|
a------------------------------------------------------------------|
e------------------------------------------------------------------|

Verse Part B

e-----------------------|
b--0----2-----2----0----|
g--2----2-----2----1----X2
d--4----0-----2----2----|
a-----------------------|
e-----------------------|



Verse Part A

e------------------------------------------------------------------|
b----0------0-----0----2-----2-----2----2-----2----2---0-----0----0|
g-------2-----2----------2-----2----------2-----2--------1-----1---X2
d--4------4-----4----0-----0-----0---2------2-----2---2-----2---2--|
a------------------------------------------------------------------|
e------------------------------------------------------------------|


Chorus
e-2--------------------5            |5            |x
b-2--------------------5            |5            |x
g-2----- x2 measures --7 X2 Measures|6 X2measures |0 X2 measures 
d-4--------------------7            |7            |2 
a-4--------------------5            |7            |2
e-2--------------------5            |5            |0


e-2--------------------5            |5            |x---------------------|
b-2--------------------5            |5            |x---------------------|
g-2----- x2 measures --7 X2 Measures|6 X2measures |0-0-x-0-0-x-x-0-0-0-0-|
d-4--------------------7            |7            |2-2-x-2-2-x-x-2-2-2-2-|
a-4--------------------5            |7            |2-2-x-2-2-x-x-2-2-2-2-|
e-2--------------------5            |5            |0-0-x-0-0-x-x-0-0-0-0-|


Bridge

e--5--x--2--0--5
b--5--x--2--2--5
g--7--0--2--2--5 X6
d--7--2--4--2--7
a--5--2--4--0--7
e--5--0--2--0--7


Chorus 

Chorus
e-2--------------------5            |5            |x
b-2--------------------5            |5            |x
g-2----- x2 measures --7 X2 Measures|6 X2measures |0 X2 measures 
d-4--------------------7            |7            |2 
a-4--------------------5            |7            |2
e-2--------------------5            |5            |0


e-2--------------------5            |5            |x---------------------|
b-2--------------------5            |5            |x---------------------|
g-2----- x2 measures --7 X2 Measures|6 X2measures |0-0-x-0-0-x-x-0-0-0-0-|
d-4--------------------7            |7            |2-2-x-2-2-x-x-2-2-2-2-|
a-4--------------------5            |7            |2-2-x-2-2-x-x-2-2-2-2-|
e-2--------------------5            |5            |0-0-x-0-0-x-x-0-0-0-0-|



Outro is just verse Part B cut off halfway the second time you play it

My first uploaded tab, lemme get some feedback! Thanks
Tap to rate this tab
 
# A B C D E F G H I J K L M N O P Q R S T U V W X Y Z