Song name
# A B C D E F G H I J K L M N O P Q R S T U V W X Y Z

Nothing Ever Stays - We Said Goodbye tab

~ ring out

INTRO
e -------------------------------------------|
B --------77--------------77-----------------|
G --99--99--99--99--99--99--99--99-----------|
D ----99------99--99--99------99--99---------|
A -------------------------------------------|
E -------------------------------------------|

Pre-Verse
Guitar 1
e -------------------------------------------|
B --------77--------------77-----------------|
G --99--99--99--99--99--99--99--99-----------|x4
D ----99------99--99--99------99--99---------|
A -------------------------------------------|
E -------------------------------------------|

Guitar 2
e ----------------------------------------------|
B ----------------------------------------------|
G ------------------------------333-55555-55555-|
D --22222-22222-222-22222-22222-333-55555-55555-|
A --22222-22222-222-22222-22222-111-33333-33333-|
E --00000-00000-000-00000-00000-----------------|

e ----------------------------------------------|
B ----------------------------------------------|
G --333-55555-55555-333-------------------------|
D --333-55555-55555-333-2~~~--------------------|
A --111-33333-33333-111-2~~~--------------------|
E ----------------------0~~~--------------------|
Tap to rate this tab
# A B C D E F G H I J K L M N O P Q R S T U V W X Y Z