Guitaretab - guitar tabs
Song name
# A B C D E F G H I J K L M N O P Q R S T U V W X Y Z

Nothing Ever Stays - The Revenge Of Holden Caufield tab

-------------------------------------------------------------------------------
The Revenge of Holden Caufield  Nothing Ever Stays
-------------------------------------------------------------------------------
Tabbed by: Al the Killer
Email: cool240024@yahoo.com

Tuning: Standard: eADGBE
Rhythm guitar

Intro- x1

e|----------------------------------------------------------------------|
B|----------------------------------------------------------------------|
G|-------------------6-------------7------4-----------------------------|
D|------7------9------------7---------------------7-------97------6-----|
A|--99-----99-----9-----55-----55-----5------77-------77------777----7--|
E|----------------------------------------------------------------------|

e|-------------------------------------------------------------------------------|
B|-------------------------------------------------------------------------------|
G|-------------------------------------------------------------------------------|
D|---6h7p6-----------------------------------------------------------------------|
A|------------97-----------------------------------------------------------------|
E|-------------------------------------------------------------------------------|

Verse- x4

e|---------------------------------------------------------------------------|
B|---------------------------------------------------------------------------|
G|-------------------6-------------7------4----------------------------------|
D|------7------9------------7---------------------7-------97------6----------|
A|--99-----99-----9-----55-----55-----5------77-------77------777----7-------|
E|---------------------------------------------------------------------------|

e|---------------------------------------------------------------------------|
B|---------------------------------------------------------------------------|
G|---------------------------------------------------------------------------|
D|---6h7p6-------------------------------------------------------------------|
A|------------97-------------------------------------------------------------|
E|---------------------------------------------------------------------------|

Chorus x3
[ Tab from: http://www.guitaretab.com/n/nothing-ever-stays/99782.html ]
e|---------------------------------------------------------------------------|
B|---------------------------------------------------------------------------|
G|---11--------7----------9--------------------------------------------------|
D|---11--------7----------9--------------------------------------------------|
A|---9x8------5x8-------7x16----------------------------------------------|
E|---------------------------------------------------------------------------|

x1

e|---------------------------------------------------------------------------|
B|---------------------------------------------------------------------------|
G|---11--------7----------9--------9-------9---------------------------------|
D|---11--------7----------9--------9-------9---------------------------------|
A|---9x8------5x8-------7x2-----7-x2----7x6------------------------------|
E|---------------------------------------------------------------------------|

Bridge

e|---------------------------------------------------------------------------|
B|---------------------------------------------------------------------------|
G|---7-----------------------------------------------------------------------|
D|---7--------2-------4-------2-------7--------------------------------------|
A|---5x4-----2-------4-------2-------7--------------------------------------|
E|------------0x8----2x2----0x2----5x8-----------------------------------|


e|---------------------------------------------------------------------------|
B|---------------------------------------------------------------------------|
G|---7-----------------------------------------------------------------------|
D|---7--------2------2-------2------4-------2-------7------------------------|
A|---5x4-----2------2-------2------4-------2-------7------------------------|
E|------------0x2---0x2----0x2---2x2----0x2----5x8---------------------|

-Its all the same stuff for the most part after that.  Not really good enough to tab
the lead that well, but thats pretty close for the rhythm.  Enjoy, its a pretty cool song.

| /  slide up
| \  slide down
| h  hammer-on
| p  pull-off
| ~  vibrato
| +  harmonic
| x  Mute note
===============================================================================
Related for The Revenge Of Holden Caufield tab