Song name
# A B C D E F G H I J K L M N O P Q R S T U V W X Y Z

Nothing To Gain - My Show tab

Nothing To Gain
My Show
This is a new band that started about a year ago.  Have heard them on cd, they are pretty good.

4x Clean
e-------------------------------------------------------------------------|
b-------------2--------3-------2------------------------------------------|
g-----------3---3----2--2---2---2-----4---4-------------------------------|
d---------4--------0-------2---------2---2--------------------------------|
a-------------------------------------------------------------------------|
e-------------------------------------------------------------------------|

2x  Distorted
e----------------------------------------------------------------------------|
b----------------------------------------------------------------------------|
g----------------------------------------------------------------------------|
d-----------------------99999-------------------------77777------------------|
a-------44444---77777---77777---99999---44444--77777--55555--99999-----------|
e-------22222---55555-----------77777---22222--55555---------77777-----------|


2x  Clean
e-----------------------------------------------------------------------|
b-----------------------------------------------------------------------|
g--------------------------------------------------9--------------------|
d------------------9---------------------------777-7-7------------------|
a------44444---777-7-7--99999---44444---77777--555-5-5--99999-----------|
e------22222---555-5-5--77777---22222---55555-----------77777-----------|


2x  Distorted
e--------------------------------------------------------------------------|
b--------------------------------------------------------------------------|
g--------------------------------------------------------------------------|
d-----------------------99999---------------------------------77777--------|
a-------44444---77777---77777---99999---44444---77777--55555--99999--------|
e-------22222---55555-----------77777----22222--55555--77777---------------|

1x  Distorted
e-----------------------------------------------------------------------|
b-----------------------------------------------------------------------|
g--------------------------------------------------9--------------------|
d------------------9---------------------------777-7-7------------------|
a------44444---777-7-7--99999---44444---77777--555-5-5--99999-----------|
e------22222---555-5-5--77777---22222---55555-----------77777-----------|


2x  Distorted
e------------------------------------------------------------------------------|
b------------------------------------------------------------------------------|
g------------------------------------------------------------------------------|
d-----------------------99999--------------------------------77777-------------|
a-------44444---77777---77777---99999---44444--77777--55555--99999-------------|
e-------22222---55555-----------77777---22222--55555--77777--------------------|

1x  Distorted		Palm Mute
e---------------------------------------------------------------------------|
b---------------------------------------------------------------------------|
g---------------------------------------------------------------------------|
d-----------------------99999---------------------------------77777---------|
a-------44444---77777---77777---99999---44444---77777--55555--99999---------|
e-------22222---55555-----------77777----22222--55555--77777----------------|


2x  Distorted
e------------------------------------------------------------------|
b------------------------------------------------------------------|
g--------------------------------------------------9---------------|
d------------------9---------------------------777-7-7-------------|
a------44444---777-7-7--99999---44444---77777--555-5-5--99999------|
e------22222---555-5-5--77777---22222---55555-----------77777------|

EVERYONE STOP PLAYING FOR ABOUT A SECOND

2x  Distorted
e---------------------------------------------------------------------------|
b---------------------------------------------------------------------------|
g---------------------------------------------------------------------------|
d-----------------------99999--------------------------------77777----------|
a-------44444---77777---77777---99999---44444--77777--55555--99999----------|
e-------22222---55555-----------77777---22222--55555--77777-----------------|

4x Clean
e-------------------------------------------------------------------------|
b-------------2--------3-------2------------------------------------------|
g-----------3---3----2--2---2---2-----4---4-------------------------------|
d---------4--------0-------2---------2---2--------------------------------|
a-------------------------------------------------------------------------|
e-------------------------------------------------------------------------|

2x  Distorted
e---------------------------------------------------------------------------|
b---------------------------------------------------------------------------|
g---------------------------------------------------------------------------|
d-----------------------99999--------------------------------77777----------|
a-------44444---77777---77777---99999---44444--77777--55555--99999----------|
e-------22222---55555-----------77777---22222--55555--77777-----------------|

4x	Solo Play with
e------------------------------------------------------------/--------------|
b-------------------------14--------------------------12-----/--14-14b------|
g---11-14h13-14--11--14h13---11--14h13-14---11--14h13--------/--------------|
d------------------------------------------------------------/--------------|
a------------------------------------------------------------/--------------|
e------------------------------------------------------------/--------------|

2x  Distorted							          / Play on last time
e---------------------------------------------------------/------------------|
b---------------------------------------------------------/------------------|
g---------------------------------------------9-----------/------------------|
d-------------9---------------------------777-7-7---------/-11-----11--------|
a--44444--777-7-7--99999---44444---77777--555-5-5--99999--/--9--9--9--999-4--|
e--22222--555-5-5--77777---22222---55555-----------77777--/--7--7--7--777-2--|

2x  Distorted
e-------------------------------------------------------------------------|
b-------------------------------------------------------------------------|
g-------------------------------------------------------------------------|
d-----------------------99999--------------------------------77777--------|
a-------44444---77777---77777---99999---44444--77777--55555--99999--------|
e-------22222---55555-----------77777---22222--55555--77777---------------|

4x	Solo Play with
e----------------------------------------------------------------/-----------|
b---------------------------14----------------------------12-----/--14-14b---|
g----11-14h13-14---11--14h13------11--14h13-14---11--14h13-------/-----------|
d----------------------------------------------------------------/-----------|
a----------------------------------------------------------------/-----------|
e----------------------------------------------------------------/-----------|
Tap to rate this tab
 
# A B C D E F G H I J K L M N O P Q R S T U V W X Y Z