Song name
# A B C D E F G H I J K L M N O P Q R S T U V W X Y Z

Nothingface - An Audio Guide To Everyday Atrocity tab

Help us improve GuitareTab! Take a short survey!
==========Goldtooth==========

Intro
|-----------------------------------------------|
|-----------------------------------------------|
|--------------2-2-2------------------2-2-2-----|
|-2-2-2-2~-----2-2-2-----2-2-2-2~-----2-2-2-----|
|-2-2-2-2~-----0-0-0-----2-2-2-2~-----0-0-0-----|
|-0-0-0-0~---------------0-0-0-0~---------------|
 ______                 ______

|------------------------------------------------|
|-----------4------------------------------------|
|------------5--2-2-2------------------2-2-2-----|
|-2-2-2-2~----2-2-2-2-----2-2-2-2~-----2-2-2-----|
|-2-2-2-2~------0-0-0-----2-2-2-2~-----0-0-0-----|
|-0-0-0-0~----------------0-0-0-0~---------------|
 ______                  ______

Main Riff
|-----------------------------------------------------|
|-----------------------------------------------------|
|-----------------------------------------------------|
|-----------------------------------------------------|
|-0-0-0-0-0-0---------------0-0-0-0-0-0---------------|
|-0-0-0-0-0-0-2-3-4-0-5-6-7-0-0-0-0-0-0-2-3-4-0-5-6-7-|
 ____________               ____________

|----------------------------------------------|
|----------------------------------------------|
|----------------------------------------------|
|----------------------------------------------|
|-0-0-0-0-0-0---------------0-0-0-0-0-0-5~-----|
|-0-0-0-0-0-0-2-3-4-0-5-6-7-0-0-0-0-0-0-2~-----|
 ____________               ____________

==========Grinning==========

Intro
|---------------------------------------|
|---------------------------------------|
|---------------------------------------|
|---------------------------------------|
|-14-0-0-14-0-0-14-0-0-14-0-0-14-0-14-0-|
|-12-0-0-12-0-0-12-0-0-12-0-0-12-0-12-0-|

|---------------------------------------|
|---------------------------------------|
|---------------------------------------|
|---------------------------------------|
|-13-0-0-13-0-0-13-0-0-13-0-0-13-0-13-0-|
|-11-0-0-11-0-0-11-0-0-11-0-0-11-0-11-0-|

|---------------------------------------|
|---------------------------------------|
|---------------------------------------|
|---------------------------------------|
|-10-0-0-10-0-0-10-0-0-10-0-0-10-0-10-0-|
|--8-0-0--8-0-0--8-0-0--8-0-0--8-0--8-0-|

|---------------------------------------|
|---------------------------------------|
|---------------------------------------|
|---------------------------------------|
|-12-0-0-12-0-0-12-0-0-12-0-0--15--15---|
|-10-0-0-10-0-0-10-0-0-10-0-0--13--13---|

Verse
|-----------------------------------|
|-----------------------------------|
|-----------------------------------|
|-----------------------------------|
|-7-0-0-0-7-0-0-0-9-0-0-0-9-0-10-10-|
|-7-0-0-0-7-0-0-0-9-0-0-0-9-0-10-10-|

|---------------------------------|
|---------------------------------|
|---------------------------------|
|---------------------------------|
|-7-0-0-0-7-0-0-0-5-5-5-5-3-3-3-3-|
|-7-0-0-0-7-0-0-0-5-5-5-5-3-3-3-3-|

Chorus
|---------------------------------|
|---------------------------------|
|---------------------------------|
|---------------------------------|
|-5-5-5-5-5-5-5-5-9-9-9-9-9-9-9-9-|
|-5-5-5-5-5-5-5-5-9-9-9-9-9-9-9-9-|

|---------------------------------|
|---------------------------------|
|---------------------------------|
|---------------------------------|
|-7-7-7-7-7-7-7-7-3-3-3-3-3-3-3-3-|
|-7-7-7-7-7-7-7-7-3-3-3-3-3-3-3-3-|

==========So Few==========

Coming Soon!

==========Villains==========

Intro Pt. 1
|-----------------|
|-----------------|
|-----------------|
|-3-3-3-3-5-5-5-5-|
|-3-3-3-3-5-5-5-5-|
|-3-3-3-3-5-5-5-5-|

Intro Pt. 2
|-----------------------------------------|
|-----------------------------------------|
|-----------------------------------------|
|-0-0-7-5-6-4-0-5-3-7-5-6-4-5-0-0-7-5-6-4-|
|-0-0-7-5-6-4-0-5-3-7-5-6-4-5-0-0-7-5-6-4-|
|-0-0-7-5-6-4-0-5-3-7-5-6-4-5-0-0-7-5-6-4-|
 ____        _               ____

Verse
|------------------------------------------------------------|
|------------------------------------------------------------|
|------------------------------------------------------------|
|-3-3-3-3-5-5-5-5-4--0-0-7-5-6-4-0-5-3-7-5-6-4-5-0-0-7-5-6-4-|
|-3-3-3-3-5-5-5-5-4--0-0-7-5-6-4-0-5-3-7-5-6-4-5-0-0-7-5-6-4-|
|-3-3-3-3-5-5-5-5-4--0-0-7-5-6-4-0-5-3-7-5-6-4-5-0-0-7-5-6-4-|
 __________________________________________________________________

==========Sleeper==========

Coming Soon!

==========Breathe Out=========

Coming Soon!

=========Error In Excellence==========

Coming Soon!

==========I, Diablo=========

Coming Soon!

==========The Sick==========

Coming Soon!
Related for An Audio Guide To Everyday Atrocity tab