Song name
# A B C D E F G H I J K L M N O P Q R S T U V W X Y Z

Nothingface - Communion tab

Help us improve GuitareTab! Take a short survey!
Intro

Eb|---------------------------|------------------0-|
Bb|------------------2--------|------------------2-|
Gb|---------0----------0------|---------0--------0-|
db|---0---0---0----1----------|---0---0---0----1---|
Ab|-----3---------------------|-----3--------------|
db|-0------------1--------5-4-|-0------------1-----|

pre-chorus

Eb|-------------|
Bb|-------------|
Gb|-------------|
db|-1-1-1-1-5-4-|
Ab|-1-1-1-1-5-4-|
db|-1-1-1-1-5-4-|

chorus

Eb|-------------------------------------|
Bb|-------------------------------------|
Gb|-------------------------------------|
db|-0-00-xx-0-00-xx---5-5-5-5---3-3-3-3-|
Ab|-0-00-xx-0-00-xx---5-5-5-5---3-3-3-3-|
db|-0-00-xx-0-00-xx---5-5-5-5---3-3-3-3-|
Related for Communion tab