Nothington - Awake For Days tab

Nothington - "Awake For Days" - All In [Eb,Ab,Db,Gb,Bb,Eb]
Tabbed By Jordan Fuller 7/21/10

Intro:Rythem Guitar & Lead does once

Eb:---------------------------3-3-3-3-3-3-3-3------|
Ab:--2-2-2-2-2-0--2-2-2-2-2-0-2-2-2-2-2-2-2-2------|
Db:--4-4-4-4-4-2--4-4-4-4-4-2-0-0-0-0-0-0-0-0------|
Gb:--4-4-4-4-4-2--4-4-4-4-4-2-0-0-0-0-0-0-0-0------|x2 For Rythem
Bb:---------------------------3-3-3-3-3-3-3-3------|
Eb:---------------------------3-3-3-3-3-3-3-3------|

Intro Lead Second Time

Eb:---------------------------3-3-3-3-3-3-3-3------|
Ab:--2222444455557777---------2-2-2-2-2-2-2-2------|
Db:--xxxxxxxxxxxxxxxx---------0-0-0-0-0-0-0-0------|
Gb:--4444666677779999---------0-0-0-0-0-0-0-0------|
Bb:---------------------------3-3-3-3-3-3-3-3------|
Eb:---------------------------3-3-3-3-3-3-3-3------|

Pre-Verse Lead & Rythem

Eb:--------------------------3-3-3-3-3-3-3-3-3-3-3-3-|
Ab:--0-0-0-0-0-0-0-0-0-0-0-0-2-2-2-2-2-2-2-2-2-2-2-2-|
Db:--2-2-2-2-2-2-2-2-2-2-2-2-0-0-0-0-0-0-0-0-0-0-0-0-|x2
Gb:--2-2-2-2-2-2-2-2-2-2-2-2-0-0-0-0-0-0-0-0-0-0-0-0-|
Bb:--------------------------3-3-3-3-3-3-3-3-3-3-3-3-|
Eb:--------------------------3-3-3-3-3-3-3-3-3-3-3-3-|

Verse Rythem

Eb:------------------------------------------3-3-3-3-|
Ab:--------------------------2-2-2-2-0-0-0-0-2-2-2-2-|
Db:--------------------------4-4-4-4-2-2-2-2-0-0-0-0-|x2
Gb:--------------------------4-4-4-4-2-2-2-2-0-0-0-0-|
Bb:------------------------------------------3-3-3-3-|
Eb:------------------------------------------3-3-3-3-|

Verse Lead

Eb:------------------------------------------3-3-3-3-|
Ab:5-5-5-5-5-5-5-5-5-5-5-5-5-2-2-2-2-0-0-0-0-2-2-2-2-|
Db:7-7-7-7-7-7-7-7-7-7-7-7-7-4-4-4-4-2-2-2-2-0-0-0-0-|
Gb:7-7-7-7-7-7-7-7-7-7-7-7-7-4-4-4-4-2-2-2-2-0-0-0-0-|x2
Bb:------------------------------------------3-3-3-3-|
Eb:------------------------------------------3-3-3-3-|

Then Back to Verse With Rythem & Lead Guitar Together x2

Pre-Chorus Lead & Rythem

Eb:----------------------------------3-3-3-3---------|
Ab:0-0-0-0-0-0-0-0-0-0-0-0-----------2-2-2-2-0-0-0-0-|
Db:2-2-2-2-2-2-2-2-2-2-2-2-----------0-0-0-0-2-2-2-2-|
Gb:2-2-2-2-2-2-2-2-2-2-2-2-----------0-0-0-0-2-2-2-2-|
Bb:----------------------------------3-3-3-3---------|
Eb:----------------------------------3-3-3-3---------|

Chorus Lead & Rythem

Eb:------------------------------------------3-3-3-3-|
Ab:------------------------------------------2-2-2-2-|
Db:0-0-0-0-0-0-0-0-0-0-0-0-0-0-0-0-0-0-0-0-0-0-0-0-0-|
Gb:2-2-2-2-2-2-2-2-2-2-2-2-2-2-2-2-2-2-2-2-2-0-0-0-0-|
Bb:3-3-3-3-3-3-3-3-3-3-3-3-3-3-3-3-3-3-3-3-3-3-3-3-3-|
Eb:2-2-2-2-2-2-2-2-2-2-2-2-2-2-2-2-2-2-2-2-2-2-2-2-2-|

Chorus Part Two Lead & Rythem

Eb:----------------------------------3-3-3-3-3-3-3-3-|
Ab:0-0-0-0----0-0--------2-2-----0-0-2-2-2-2-2-2-2-2-|
Db:2-2-2-2-00-2-2--------4-4-----2-2-0-0-0-0-0-0-0-0-|
Gb:2-2-2-2-22-2-2--------4-4-----2-2-0-0-0-0-0-0-0-0-|
Bb:--------33------------------------3-3-3-3-3-3-3-3-|
Eb:--------23------------------------3-3-3-3-3-3-3-3-|

Chorus Part Three Lead & Rythem

Eb:--------------------------------------------------|
Ab:0-0-0-0-0-0-0-0-0-0-0-0-0-0-0-0-0-0-0-0-0-0-0-0-0-|
Db:2-2-2-2-2-2-2-2-2-2-2-2-2-2-2-2-2-2-2-2-2-2-2-2-2-|
Gb:2-2-2-2-2-2-2-2-2-2-2-2-2-2-2-2-2-2-2-2-2-2-2-2-2-|
Bb:--------------------------------------------------|
Eb:--------------------------------------------------|

Then Back to Intro Riff

Introx2
Pre-Chorus
Versex2
Chorus 1-3
Introx2
Pre-Chorus
Versex2
Chorus 1-3
Chorus 1-3

There You Go Email Me Or Message Me If Any Problems....Enjoy!
Tap to rate this tab
 
# A B C D E F G H I J K L M N O P Q R S T U V W X Y Z