Song name
# A B C D E F G H I J K L M N O P Q R S T U V W X Y Z

Nothington - The Bottom Line tab

Nothington - "The Bottem Line" - All In [Eb,Ab,Db,Gb,Bb,Eb]
Tabbed bY Jordan Fuller 7/21/10

Intro x2

Eb:--------------------5-5-5-5-5-5-5-5-------------------7-7-7-7-7-7-7-7-7-|
Ab:4-4-4-4-4-4-4-4-4---7-7-7-7-7-7-7-7-7-7-7-7-7-7-7-7-7-7-7-7-7-7-7-7-7-7-|
Db:7-7-6-6-6-6h7p6-6h7-7-7-7-7-7-7-7-7-9-9-9-9-9-9-9-9-9-9-9-9-9-9-9-9-9-9-|
Gb:------------------------------------9-9-9-9-9-9-9-9-9---------8-8-8-8-8-|
Bb:------------------------------------------------------------------------|
Eb:------------------------------------------------------------------------|

Verse x2

Eb:--------------------5-5-5-5-5-5-5-5-------------------7-7-7-7-7-7-7-7-7-|
Ab:4-4-4-4-4-4-4-4-4---7-7-7-7-7-7-7-7-7-7-7-7-7-7-7-7-7-9-9-9-9-9-9-9-9-9-|
Db:6-6-6-6-6-6-6-6-6---7-7-7-7-7-7-7-7-9-9-9-9-9-9-9-9-9-9-9-9-9-9-9-9-9-9-|
Gb:6-6-6-6-6-6-6-6-6-------------------9-9-9-9-9-9-9-9-9-------------------|
Bb:------------------------------------------------------------------------|
Eb:------------------------------------------------------------------------|

Chorus x2

Eb:2-2-2-2-0-2-2-2-2-2-5-5-5-5-5-5-5-5-------------------7-7-7-7-7-7-7-7-7-|
Ab:4-4-4-4-4-4-4-4-4-4-7-7-7-7-7-7-7-7-7-7-7-7-7-7-7-7-7-7-7-7-7-7-7-7-7-7-|
Db:4-4-4-4-4-4-4-4-4-4-7-7-7-7-7-7-7-7-9-9-9-9-9-9-9-9-9-9-9-9-9-9-9-9-9-9-|
Gb:------------------------------------9-9-9-9-9-9-9-9-9---------8-8-8-8-8-|
Bb:------------------------------------------------------------------------|
Eb:------------------------------------------------------------------------|

After Chorus Back to Intro Riff x2 Then To Verse Riff x2 then to Chorus x2 then to Intro 
x2 the End

Solo Between the Last Intro Riff x2

Eb:-------------------------------------------------------------------------|
Ab:7-7-7-7-7-7-9-9-9-9-9-9--11-11-11-11-11-11-12-12-12-12-14-14/12/11-11-11-|
Db:x-x-x-x-x-x-x-x-x-x-x-x-x-x-x-x-x-x-x-x-x-x-x-x-x-x-x-x-x-x-x-x-x-x-x-x--|
Gb:9-9-9-9-9-9-111111111111-13-13-13-13-13-13-14-14-14-14-16-16/14/13-13-13-|
Bb:-------------------------------------------------------------------------|
Eb:-------------------------------------------------------------------------|

/ - Slide Down
p - Pull-Off
h - Hammer-On

Thats It!Message Me Or Email If Any Problems.....Enjoy!
Tap to rate this tab
 
# A B C D E F G H I J K L M N O P Q R S T U V W X Y Z