Nothington - Not Looking Down tab

Nothington - "Not Looking Down" - "Roads, Bridges, And Ruins" [Eb,Ab,Db,Gb,Bb,Eb]
Tabbed By Jordan Fuller 7/23/10

Intro Rythem

Eb:---------------------------7----------------------------------------|
Ab:7--------------------------9----------------------------------------|
Db:9--------------------------9----------------------------------------|
Gb:9-------------------------------------------------------------------|x2
Bb:--------------------------------------------------------------------|
Eb:--------------------------------------------------------------------|

Intro Lead

Eb:--------------------------------------------------------------------|
Ab:--------------------------------------------------------------------|
Db:--------------------------------------------------------------------|
Gb:--------6-6-----4-4-----------------6-6-----4-4---------------------|x4
Bb:5-555-5-----4-4-------------5-555-5-----4-4-----------5-4-----------|
Eb:--------------------4-4-2-2---------------------2-222---------------|

Intro Rythem(Part2)

Eb:----------------------------7-7-7-7-7-7-7-7-7-7-7-7-7-7-7-7-7-7-7-7-|
Ab:7-7-7-7-7-7-7-7-7-7-7-7-7-7-9-9-9-9-9-9-9-9-9-9-9-9-9-9-9-9-9-9-9-9-|
Db:9-9-9-9-9-9-9-9-9-9-9-9-9-9-9-9-9-9-9-9-9-9-9-9-9-9-9-9-9-9-9-9-9-9-|
Gb:9-9-9-9-9-9-9-9-9-9-9-9-9-9-----------------------------------------|x2
Bb:--------------------------------------------------------------------|
Eb:--------------------------------------------------------------------|

Verse Rythem & Lead

Eb:--------7-7-7-7-9-9-9-9-4-4-4-4-5-5-5-5---------7-7-7-7-7-7-7-7---7-|
Ab:7-7-7-7-9-9-9-9-111111116-6-6-6-7-7-7-7-7-7-7-7-9-9-9-9-9-9-9-9-7-9-|
Db:9-9-9-9-9-9-9-9-111111116-6-6-6-7-7-7-7-9-9-9-9-9-9-9-9-9-9-9-9-9-9-|
Gb:9-9-9-9---------------------------------9-9-9-9-----------------9---|
Bb:--------------------------------------------------------------------|
Eb:--------------------------------------------------------------------|

Pre-Chorus All Palm Muted Except First Note

Eb:5-5-5-5-5-5-5-5-5-5-5-5-5-5-5-5-5-5-7-7-7-7-7-7-7-7-7-7-7-7-7-7-7-7-|
Ab:7-7-7-7-7-7-7-7-7-7-7-7-7-7-7-7-7-7-9-9-9-9-9-9-9-9-9-9-9-9-9-9-9-9-|
Db:7-7-7-7-7-7-7-7-7-7-7-7-7-7-7-7-7-7-9-9-9-9-9-9-9-9-9-9-9-9-9-9-9-9-|
Gb:--------------------------------------------------------------------|
Bb:--------------------------------------------------------------------|
Eb:--------------------------------------------------------------------|

Chorus

Eb:----------------7-7-7-7-7-7-7-7-5-5-5-5-5-5-5-5-9-9-7-7-------------|
Ab:7-7-7-7-7-7-7-7-9-9-9-9-9-9-9-9-7-7-7-7-7-7-7-7-11119-9-------------|
Db:9-9-9-9-9-9-9-9-9-9-9-9-9-9-9-9-7-7-7-7-7-7-7-7-11119-9-------------|
Gb:9-9-9-9-9-9-9-9-----------------------------------------------------|x4
Bb:--------------------------------------------------------------------|
Eb:--------------------------------------------------------------------|

Chorus Lead
Eb:--------------------------------------------------------------------|
Ab:--------------------------------------------------------------------|
Db:--------------------------------------------------------------------|
Gb:--------------------------------------------------------------------|
Bb:5-5-5-5-5-5-5-5-7-7-7-7-7-7-7-7-9-9-9-9-9-9-9-9-7-5-5-5-5h7p5-5-5-5-|
Eb:--------------------------------------------------------------------|

Eb:--------------------------------------------------------------------|
Ab:--------------------------------------------------------------------|
Db:--------------------------------------------------------------------|
Gb:--------------------------------------------------------------------|
Bb:5-5-5-7-7-7-7-7-7-5-4-5-5-5-5-5-5-5-5-7-7-7-7-5-5-5-5---------------|
Eb:--------------------------------------------------------------------|

Bridge(bend the b string way up while picking it)

Eb:--------------------------------------------------------------------|
Ab:7-------------------------------------------4-4-4-4-4-4-4-4-4-4-4-4-|
Db:9-------------------------------------------6-6-6-6-6-6-6-6-6-6-6-6-|
Gb:9-------------------------------------------6-6-6-6-6-6-6-6-6-6-6-6-|
Bb:-----------5b-------------------------------------------------------|
Eb:--------------------------------------------------------------------|

Bridge(Part2)

Eb:5-5-5-5-5-5-5-5-5-5-5-5-5-5-5-5-7-7-7-7-7-7-7-7-7-7-7-7-7-7-7-7-7-7-|
Ab:7-7-7-7-7-7-7-7-7-7-7-7-7-7-7-7-9-9-9-9-9-9-9-9-9-9-9-9-9-9-9-9-9-9-|
Db:7-7-7-7-7-7-7-7-7-7-7-7-7-7-7-7-9-9-9-9-9-9-9-9-9-9-9-9-9-9-9-9-9-9-|
Gb:--------------------------------------------------------------------|
Bb:--------------------------------------------------------------------|
Eb:--------------------------------------------------------------------|

Bridge(Part3)

Eb:5-5-5-5-5-5-5-5-5-5-5-5-5-5-5-5-------------------7-7-7-7-7-7-7-7-7-|
Ab:7-7-7-7-7-7-7-7-7-7-7-7-7-7-7-7-7-7-7-7-7-7-7-7-7-9-9-9-9-9-9-9-9-9-|
Db:7-7-7-7-7-7-7-7-7-7-7-7-7-7-7-7-9-9-9-9-9-9-9-9-9-9-9-9-9-9-9-9-9-9-|
Gb:--------------------------------9-9-9-9-9-9-9-9-9-------------------|x2
Bb:--------------------------------------------------------------------|
Eb:--------------------------------------------------------------------|

Bridge(Part4 - However Many Palm Mutes Are In The Song)

Eb:7-7-7-7-7-7-7-7-7-7-7-7-7-7-7-7-7-7-7-7-7-7-7-7-7-7-7-7-7-7-7-7-7-7-|
Ab:9-9-9-9-9-9-9-9-9-9-9-9-9-9-9-9-9-9-9-9-9-9-9-9-9-9-9-9-9-9-9-9-9-9-|
Db:9-9-9-9-9-9-9-9-9-9-9-9-9-9-9-9-9-9-9-9-9-9-9-9-9-9-9-9-9-9-9-9-9-9-|
Gb:--------------------------------------------------------------------|
Bb:--------------------------------------------------------------------|
Eb:--------------------------------------------------------------------|

Intro
Verse
Pre-Chorus
Chorus
Intro
Verse 2
Pre-Chorus
Chorus
Bridge
Bridge 2
Bridge 3
Bridge 4 w/Palm Mutes on 799
Chorus
End

Message Me For Any Problems..........Enjoy!
Tap to rate this tab
 
# A B C D E F G H I J K L M N O P Q R S T U V W X Y Z