Song name
# A B C D E F G H I J K L M N O P Q R S T U V W X Y Z

Notorious Big - Big Poppa tab

As heard here: http://www.youtube.com/watch?v=GTaxbN9jSwg

Tuning: Standard

Chorus                                                 3x
e|-------0------------------------------------------------|---0-------------|
B|-------------3--------1----0^1^0-----0-----------------o|-----3---1-0^1^0-|
G|--2------------------------------2-------------------0--|-2--------------2|
D|--3----------------2--------------------2------2--0-----|-3------2--------|
A|-------------3-----------------------0----0-------3----o|-----3-----------|
E|--1----------------0-------4-----------------3----------|-1------0--4-----|

                  Verse           3x
e|-7-5-7----7-9-|--------------------|---------7-5-7---7-9------------------|
B|--------------|o-3----0---1---3-5-0|-3---0--------------------------------|
G|-4-2-4----5-7-|--2----1---0---4-4--|-2---1---4-2-4---5-7------------------|
D|--------------|--3----2---2---3-5--|-3---2--------------------------------|
A|-0------------|o---3------0-----3-o|---3-----0----------------------------|
E|--------3-----|--1----0-4---0-3----|-1---0-4-------3----------------------|
Tap to rate this tab
 
# A B C D E F G H I J K L M N O P Q R S T U V W X Y Z