Song name
# A B C D E F G H I J K L M N O P Q R S T U V W X Y Z

Notorious Big - One More Chance tab

slightly bend the 8 and 12

e|------------------|
B|------------------|
G|------------------|
D|------------------|
A|------------------|
E|-----8-----12-----|

the piano part of the beat

e|------------------------------------------------------------------------------|
B|------------------------------------------------------------------------------|
G|------------------------------------------------------------------------------|
D|-------7--9--10---10--9--7--9--10--7------------------------------------------|
A|----------------------------------------12--14--15--15--14--12--14--15--12----|
E|------------------------------------------------------------------------------|

this plays when he starts spitting

e|---------------------|
B|---------------------|
G|---------------------|
D|-------7--------10---|
A|---------------------|
E|-----8-------12------|
Tap to rate this tab
# A B C D E F G H I J K L M N O P Q R S T U V W X Y Z