Song name
# A B C D E F G H I J K L M N O P Q R S T U V W X Y Z

Notorious Big - Big Poppa tab

E0-12-10-8-7/8/7-5-7-0-----|
B----------------------3---|
G--------------------------|
D--------------------------|
A--------------------------|
E--------------------------|

E0-12-10-8-7/8/7-5-7-0-----|
B----------------------3-6-|
G--------------------------|
D--------------------------|
A--------------------------|
E--------------------------|

E0-12-10-8-7/8/7-5-7-0-----|
B----------------------3---|
G--------------------------|
D--------------------------|
A--------------------------|
E--------------------------|

E0-12-10-8-7/8/7-5-7-5-7-8-10-|
B-----------------------------|
G-----------------------------|
D-----------------------------|
A-----------------------------|
E-----------------------------|

YA THIS IS MY FIRST TAB SO YA, AND IF YOU'RE ONE OF THOSE PEOPLE WHO ARE LIKE OHH RAP IS 
MUSIC, THERE'S NO GUITAR IN RAP, YOU'RE SO STUPID, I'M A MUSIC MAJOR, I KNOW FOR A FACT 
THERE'S JUST AS MUCH MUSIC IN RAP AS THERE IS IN ROCK, IF NOT MORE
Tap to rate this tab
 
# A B C D E F G H I J K L M N O P Q R S T U V W X Y Z