Song name
# A B C D E F G H I J K L M N O P Q R S T U V W X Y Z

Noumena - Through The Element tab

4:03
---------------------------------------------------------|
---------------------------------------------------------|
----------------------10-12-12-10----------10------------|
---13-13-12-10-12-13--------------13-12-13-----12--------|
---------------------------------------------------13-10-|
---------------------------------------------------------|

---------------------------------------------------------|
-------------13-13-11------------------------------------|
---------10------------13-12-----------------------------|
--12-13--------------------------------------------------|
---------------------------------------------------------|
---------------------------------------------------------|

---------------------------------------------------------|
---------------------------------------------------------|
----------------------10-12-12-10----------10------------|
---13-13-12-10-12-13 -------------13-12 13-----12--------|
---------------------------------------------------13-10-|
---------------------------------------------------------|

---------------------------------------------------------|
-------------13-13-16-15-13------------------------------|
---------10----------------------------------------------|
--12-13--------------------------------------------------|
---------------------------------------------------------|
---------------------------------------------------------|

4:32
---------------------------------------------------------|
---------------------------------------------------------|
----------------------10-12-12-10----------10------------|
---13-13-12-10-12-13--------------13-12-13-----12--------|
---------------------------------------------------13-10-|
---------------------------------------------------------|

---------------------------------------------------------|
-------------13-13-11------------------------------------|
---------10------------13-12-----------------------------|
--12-13--------------------------------------------------|
---------------------------------------------------------|
---------------------------------------------------------|

---------------------------------------------------------|
---------------------------------------------------------|
----------------------10-12-12-10----------10------------|
---13-13-12-10-12-13 -------------13-12-13-----12--------|
---------------------------------------------------13-10-|
---------------------------------------------------------|

---------------------------------------------------------|
-------------13-13-16-15-13------------------------------|
---------10----------------------------------------------|
--12-13--------------------------------------------------|
---------------------------------------------------------|
---------------------------------------------------------|


Distorsion 4:56
---------------------------------------------------------|
---------------------------------------------------------|
---------------------------------------------------------|
--13-12------15-13-12--13-12-----13-12-------------------|
--------13-------------------13--------13----------------|
---------------------------------------------------------|


-----------------------------------------------------------------|
--------------------------------------------11-13----------------|
------------10-12------8-10-12-13----13-13----------13-15-12-----|
10-13-12------------10-------------------------------------------|
---------10------------------------------------------------------|
-----------------------------------------------------------------|

-----------------------------------------------------------------|
--------------------------------------------11-13 ---------------|
------------10-12------8-10-12-13----13 13----------13-15-12-----|
10-13-12------------10-------------------------------------------|
---------10------------------------------------------------------|
-----------------------------------------------------------------|

5:24
--11-10-------------------11-----------10----------13-15-16-----15---16-|
--------11--13----13------------13-----------13-------------13----------|
---------------12------------12-----------12----------------------------|
------------------------------------------------------------------------|
------------------------------------------------------------------------|
------------------------------------------------------------------------|

--16-16-18-18p-16-18-15-----------------------------------|
------------------------17-16-----------------------------|
------------------------------16--------------------------|
----------------------------------------------------------|
----------------------------------------------------------|
----------------------------------------------------------|

5:41
--11-10-------------------11-----------10----------13 15 16-----15---16-|
--------11--13----13------------13-----------13-------------13----------|
---------------12------------12-----------12----------------------------|
------------------------------------------------------------------------|
------------------------------------------------------------------------|
------------------------------------------------------------------------|

--16-16-18-18p 16-18-15-----------------------------------------------------|
------------------------16-15-----------------------------------------------|
------------------------------15---13-13-15-13-12---12-13-12----10----------|
-------------------------------------------------------------12----13-12-13-|
----------------------------------------------------------------------------|
----------------------------------------------------------------------------|
Tap to rate this tab
# A B C D E F G H I J K L M N O P Q R S T U V W X Y Z