Song name
# A B C D E F G H I J K L M N O P Q R S T U V W X Y Z

Nouvelle Vague - Making Plans For Nigel tab

Nouvele Vague  Making plans for Nigel  XTC cover

A sweet cover, the solo goes like this:

e|--------------------------2-2-2---|
B|--2---------2---------------------|
G|----2-4-2-2---2-4-2-2-1-1---------|
D|----------------------------------|
A|----------------------------------|
E|----------------------------------|


e|--------------------------2-2-2---|
B|--2---------2---------------------|
G|----2-4-2-2---2-4-2-2-1-1---------|
D|----------------------------------|
A|----------------------------------|
E|----------------------------------|
Tap to rate this tab
 
# A B C D E F G H I J K L M N O P Q R S T U V W X Y Z