Nouvelle Vague - In A Manner Of Speaking tab

This is my first tab, so I hope it's okay. The chords were there already, and I 
used them to make these tabs.

I couldn't figure out the intro.


Tuning standard, capo on 6th

Verse

e|--------------------------------------------------------------------------|
B|---1----1---1--1----1----1--1----1----1--1----1----1--1----1----1--1------|
G|---2----2---2--2----2----2--0----0----0--0----0----0--2----2----2--2------|
D|---2----2---2--2----2----2--2----2----2--2----2----2--3----3----3--3------|
A|-0----0----0--0----0----0-------------------------------------------------|
E|---------------------------3----3----3--3----3----3--1----1----1--1-------|
    In a manner of speaking....      

e|--------------------------------------------------------------------------|
B|--1----1--0----0-----3----3--3---1---1----1--1----------------------------|
G|--2----2--1----1-----1----1--1---2---2----2--2----------------------------|
D|--3----3--2----2-----2----2--2---2---2----2--2----------------------------|
A|--------------------2----2--2--0----0----0--0-----------------------------|
E|-1----1--0----0--0--------------------------------------------------------|
   And so on

Chorus

e|--------------------------------------------------------------------------|
B|--1----1----1--1----1----1--0----0----0--0----0----0--1----1----1--1------|
G|--2----2----2--2----2----2--0----0----0--0----0----0--2----2----2--2------|
D|--2----2----2--2----2----2--0----0----0--0----0----0--3----3----3--3------|
A|-0----0----0--0----0----0-------------------------------------------------|
E|---------------------------3----3----3--3----3----3--1----1----1--1-------|
   Oh, give me the words... 

e|--------------------------------------------------------------------------|
B|--1----1--0----0--0---3---3--3--1----1----1--1----------------------------|
G|--2----2--1----1--1---1---1--1--2----2----2--2----------------------------|
D|--3----3--2----2--2---2---2--2--2----2----2--2----------------------------|
A|--------------------2----2--2--0----0----0--0-----------------------------|
E|-1----1--0----0--0--------------------------------------------------------|
Tap to rate this tab
 
# A B C D E F G H I J K L M N O P Q R S T U V W X Y Z