Song name
# A B C D E F G H I J K L M N O P Q R S T U V W X Y Z

Nouvelle Vague - Killing Moon tab

-------------------------------------------------------------------------------
                             KILLING MOON - Nouvelle Vague (intro)
-------------------------------------------------------------------------------
Tabbed by:thecoffeeguy

Tuning:Standard

Description: I have been playing guitar for 4 months now. I am self taught, so This is 
my first tab, here we go. By the way it is all by ear and I hope to have the rest of the 
song up asap.

CAPO: 3rd fret All tabs are according to the capo.

e|---------------------------------------------------------------------------|
B|---0-----0-----0-----0-----0-----0-----0-----0-----0-----0-----------------|
G|---0-----0-----0-----0-----0-----0-----0-----0-----0-----0-----------------|
D|---------------------------------------------------------------------------|
A|------2-----------2-----3-----------3-----------------2--------------------|
E|0-----------0-----------------3-----------3--p2-0--------------------------|


This is what I have gotten so far. Although it is just the beginning, if you have the 
rest of the song it would be much appreciated.
 Thanks,
     Ben
Tap to rate this tab
# A B C D E F G H I J K L M N O P Q R S T U V W X Y Z