Song name
# A B C D E F G H I J K L M N O P Q R S T U V W X Y Z

Nouvelle Vague - Killing Moon tab

-------------------------------------------------------------------------------
                             SONG NAME - Band Name
-------------------------------------------------------------------------------
Tabbed by: paulgore
Email: paulgorejr@yahoo.com

Tuning: standard tuning, capo first fret. Positions relative to capo.

This is my very first tab - though I have been using tabs for a few years. Welcome 
recommendations for improving.


     Fm                          chord?
e|----------------------------------------------------|
B|-----2-2---2-2---2-2---2-2----2-2---2-2---2-2---2-2-|
G|-----2-2---2-2---2-2---2-2----2-2---2-2---2-2---2-2-|
D|----------------------------0-----------0-----------|
A|---------4-----------4------------0-----------0-----|
E|---2-----------2------------------------------------|

     Fm                          chord?
e|----------------------------------------------------|
B|-----2-2---2-2---2-2---2-2----2-2---2-2---2-2---2-2-|
G|-----2-2---2-2---2-2---2-2----2-2---2-2---2-2---2-2-|
D|---------------4------------0-----------0-----------|
A|---------4-----------4------------0-----------0-----|
E|-4-2------------------------------------------------|

     Fm                          chord?
e|----------------------------------------------------|
B|-----2-2---2-2---2-2---2-2----2-2---2-2---2-2---2-2-|
G|-----2-2---2-2---2-2---2-2----2-2---2-2---2-2---2-2-|
D|----------------------------0-----------0-----------|
A|---------4-----------4------------0-----------0-----|
E|-4-2-----------2------------------------------------|

     Fm                          chord?
e|----------------------------------------------------|
B|-----2-2---2-2---2-2---2-2----2-2---2-2---2-2---2-2-|
G|-----2-2---2-2---2-2---2-2----2-2---2-2---2-2---2-2-|
D|---------------4------------0-----------0-----------|
A|---------4-----------4------------0-----------0-----|
E|-4-2------------------------------------------------|

     Fm                          chord?
e|----------------------------------------------------|
B|-----2-2---2-2---2-2---2-2----2-2---2-2---2-2---2-2-|
G|-----2-2---2-2---2-2---2-2----2-2---2-2---2-2---2-2-|
D|---------------4-----5------0-----------0-----------|
A|---------4------------------------0-----------0-----|
E|-4-2------------------------------------------------|


BRIDGE (repeat 6 times)

     A                 Dm
e|-------0-------1-------0-------1--------------------|
B|------2-2-----3-3-----2-2-----3-3-------------------|
G|-----2---2---2---2---2---2---2---2------------------|
D|-----------0---------------0------------------------|
A|---0---------------0--------------------------------|
E|----------------------------------------------------|

Note: with above bridge second guitar can play this

     A                 Dm
e|----------------------------------------------------|
B|-----2--2----2--2----3--3---2--3--------------------|
G|-----2--2----2--2----2--2---2--3--------------------|
D|-----------2-------0--------------------------------|
A|---0-----------------------0------------------------|
E|----------------------------------------------------|

Note: during last two bridge repeats, try this

e|----5-5-----3-3------1-3----------------------------|
B|----5-5-----5-5------1-3-----3-3--------------------|
G|-----------------------------2-2--------------------|
D|----------------------------------------------------|
A|----------------------------------------------------|
E|----------------------------------------------------|

     Fm
e|----------------------------------------------------|
B|-----2-2---2-2---2-2---2-2----2-2---2-2---2-2---2-2-|
G|-----2-2---2-2---2-2---2-2----2-2---2-2---2-2---2-2-|
D|---------------4------------0-----------0-----------|
A|---------4-----------4------------0-----------0-----|
E|---2------------------------------------------------|

     Fm
e|----------------------------------------------------|
B|-----2-2---2-2---2-2---2-2----2-2---2-2---2-2---2-2-|
G|-----2-2---2-2---2-2---2-2----2-2---2-2---2-2---2-2-|
D|---------------4------------0-----------0-----------|
A|---------4-----------4------------0-----------0-----|
E|---2------------------------------------------------|

     Fm
e|----------------------------------------------------|
B|-----2-2---2-2---2-2---2-2----2-2---2-2---2-2---2-2-|
G|-----2-2---2-2---2-2---2-2----2-2---2-2---2-2---2-2-|
D|---------------4-----5------0-----------0-----------|
A|---------4------------------------0-----------0-----|
E|-4-2------------------------------------------------|


BRIDGE (repeat 11 times)

     A                 Dm
e|-------0-------1-------0-------1--------------------|
B|------2-2-----3-3-----2-2-----3-3-------------------|
G|-----2---2---2---2---2---2---2---2------------------|
D|-----------0---------------0------------------------|
A|---0---------------0--------------------------------|
E|----------------------------------------------------|

Note: with above bridge second guitar can play this

     A                 Dm
e|----------------------------------------------------|
B|-----2--2----2--2----3--3---2--3--------------------|
G|-----2--2----2--2----2--2---2--3--------------------|
D|-----------2-------0--------------------------------|
A|---0-----------------------0------------------------|
E|----------------------------------------------------|

Note: mix in high string licks

e|----5-5-----3-3------1-3----------------------------|
B|----5-5-----5-5------1-3-----3-3--------------------|
G|-----------------------------2-2--------------------|
D|----------------------------------------------------|
A|----------------------------------------------------|
E|----------------------------------------------------|




************************************

| /   slide up
| \   slide down
| h   hammer-on
| p   pull-off
| ~   vibrato
| +   harmonic
| x   Mute note
| b   Bend
| pb  Pre-bend
| br  Bend release
| pbr Pre-bend release
| brb Bend release bend

************************************
Tap to rate this tab
# A B C D E F G H I J K L M N O P Q R S T U V W X Y Z