Song name
# A B C D E F G H I J K L M N O P Q R S T U V W X Y Z

Novastar - Faith Live tab

Band: Novastar
Song: Faith (live)

To get the perfect sound like Rodrigo Fuentealba usses you have to have distortion and
an Ebow. And then slide from evry note to the otherone.

e |--------------|--------------|---------------|
B |--------------|--------------|---------------|
G |--4--5--7--9--|--7--9--7--9--|--10--9--7--9--|
D |--------------|--------------|---------------|
A |--------------|--------------|---------------|
E |--------------|--------------|---------------|

e |--------------|---------------|
B |--------------|---------------|
G |--4--5--7--9--|-10--9--10--12-|
D |--------------|---------------|
A |--------------|---------------|
E |--------------|---------------|

e |--------------|--------------|---------------|
B |--------------|--------------|---------------|
G |--4--5--7--9--|--7--9--7--9--|--10--9--7--9--|
D |--------------|--------------|---------------|
A |--------------|--------------|---------------|
E |--------------|--------------|---------------|

e |--------------|---------------|
B |--------------|---------------|
G |--4--5--7--9--|-10--9--10--12-|
D |--------------|---------------|
A |--------------|---------------|
E |--------------|---------------|

e |--------------|--------------|---------------|
B |--------------|--------------|---------------|
G |--4--5--7--9--|--7--9--7--9--|--10--9--7--9--|
D |--------------|--------------|---------------|
A |--------------|--------------|---------------|
E |--------------|--------------|---------------|

e |--------------|--------------|
B |--------------|--------------|
G |--3--5--7--5--|--2~~~~-------|
D |--------------|--------------|
A |--------------|--------------|
E |--------------|--------------|

Play all this twise. And thats it. 
Very simpel but sounds so cool!

tabbed by: Wouter Moscou
Tap to rate this tab
 
# A B C D E F G H I J K L M N O P Q R S T U V W X Y Z