Song name
# A B C D E F G H I J K L M N O P Q R S T U V W X Y Z

November Blessing - Storms tab

----------------------------------------------------------------------------
			     Storms - November Blessing
----------------------------------------------------------------------------
Tabbed By:Ryanshopefan1
Email:Guitplayer14@hotmail.com

Tuning:Drop C

Intro

D|-0-0000--5-5555--8-8888--5-5555----------8--8-8-8-8---8--8-8-8-8---------|
A|-6-6666--6-6666--6-6666--6-6666----------10-10101010--11-11111111--------|
F|-7-7777--7-7777--7-7777--7-7777----------10-10101010--10-10101010--------|
C|-0-0000--0-0000--0-0000--0-0000--8-8888--8--8-8-8-8---8--8-8-8-8---------|
G|-0-0000--0-0000--0-0000--0-0000--8-8888--8--8-8-8-8---8--8-8-8-8---------|
C|-0-0000--0-0000--0-0000--0-0000--8-8888--8--8-8-8-8---8--8-8-8-8---------|

D|-8--8-8-8-8---0-0000--5-5555--8-8888--5-5555----------8--8-8-8-8---------|
A|-10-10101010--6-6666--6-6666--6-6666--6-6666----------10-10101010--------|
F|-10-10101010--7-7777--7-7777--7-7777--7-7777----------10-10101010--------|
C|-8--8-8-8-8---0-0000--0-0000--0-0000--0-0000--8-8888--8--8-8-8-8---------|
G|-8--8-8-8-8---0-0000--0-0000--0-0000--0-0000--8-8888--8--8-8-8-8---------|
C|-8--8-8-8-8---0-0000--0-0000--0-0000--0-0000--8-8888--8--8-8-8-8---------|

D|-8--8-8-8-8---8--8-8-8-8-------------------------------------------------|
A|-10-10101010--10-10101010------------------------------------------------|
F|-9--9-9-9-9---9--9-9-9-9-------------------------------------------------|
C|-8--8-8-8-8---8--8-8-8-8-------------------------------------------------|
G|-8--8-8-8-8---8--8-8-8-8-------------------------------------------------|
C|-8--8-8-8-8---8--8-8-8-8-------------------------------------------------|

Verses 1&2
And Outro

D|-0-0--------------8--8-8-8-8---8--8-8-8-8---8--8-8-8-8-------------------|
A|-6-6--------------10-10101010--11-11111111--10-10101010------------------|
F|-7-7--------------10-10101010--10-10101010--10-10101010------------------|
C|-0-0------8-8888--8--8-8-8-8---8--8-8-8-8---8--8-8-8-8-------------------|
G|-0-0------8-8888--8--8-8-8-8---8--8-8-8-8---8--8-8-8-8-------------------|
C|-0-0------8-8888--8--8-8-8-8---8--8-8-8-8---8--8-8-8-8-------------------|

Now Play This Part 3 Times
D|-0-0000--5-5555--8-8888--5-5555----------8--8-8-8-8---8--8-8-8-8---------|
A|-6-6666--6-6666--6-6666--6-6666----------10-10101010--11-11111111--------|
F|-7-7777--7-7777--7-7777--7-7777----------10-10101010--10-10101010--------|
C|-0-0000--0-0000--0-0000--0-0000--8-8888--8--8-8-8-8---8--8-8-8-8---------|
G|-0-0000--0-0000--0-0000--0-0000--8-8888--8--8-8-8-8---8--8-8-8-8---------|
C|-0-0000--0-0000--0-0000--0-0000--8-8888--8--8-8-8-8---8--8-8-8-8---------|

D|-8--8-8-8-8-|--8------8-------|
A|-10-10101010|--10-----10------| That Is What You End Each Verse With
F|-10-10101010|--10-----9-------|
C|-8--8-8-8-8-|--8------8-------|
G|-8--8-8-8-8-|--8------8-------|
C|-8--8-8-8-8-|--8------8-------|

Chorus

D|-0-0000--5-5555--8-8888--5-5555------------------------------------------|
A|-6-6666--6-6666--6-6666--6-6666------------------------------------------|
F|-7-7777--7-7777--7-7777--7-7777--10-10101010--10-10101010--12-12121212---|
C|-0-0000--0-0000--0-0000--0-0000--8--8-8-8-8---8--8-8-8-8---10-10101010---|
G|-0-0000--0-0000--0-0000--0-0000--8--8-8-8-8---8--8-8-8-8---10-10101010---|
C|-0-0000--0-0000--0-0000--0-0000--8--8-8-8-8---8--8-8-8-8---10-10101010---|

D|--------------0-0000--5-5555--8-8888--5-5555-----------------------------|
A|--------------6-6666--6-6666--6-6666--6-6666-----------------------------|
F|-12-12121212--7-7777--7-7777--7-7777--7-7777--10-10101010--10-10101010---|
C|-10-10101010--0-0000--0-0000--0-0000--0-0000--8--8-8-8-8---8--8-8-8-8----|
G|-10-10101010--0-0000--0-0000--0-0000--0-0000--8--8-8-8-8---8--8-8-8-8----|
C|-10-10101010--0-0000--0-0000--0-0000--0-0000--8--8-8-8-8---8--8-8-8-8----|

D|-------------------------------------------------------------------------|
A|-------------------------------------------------------------------------|
F|-12-12121212--12-12121212--12-12121212--12-12121212----------------------|
C|-10-10101010--10-10101010--10-10101010--10-10101010----------------------|
G|-10-10101010--10-10101010--10-10101010--10-10101010----------------------|
C|-10-10101010--10-10101010--10-10101010--10-10101010----------------------|

This Is The First Bridge/Break Thing

D|-0--8------8------8---------------8--8-8-8-8---8--8-8-8-8----------------|
A|-6---10-----10-----10-------------10-10101010--11-11111111---------------|
F|-7-----10-----10-----10-----------10-10101010--10-10101010---------------|
C|-0--------------------------------8--8-8-8-8---8--8-8-8-8----------------|
G|-0--------------------------------8--8-8-8-8---8--8-8-8-8----------------|
C|-0--------------------------------8--8-8-8-8---8--8-8-8-8----------------|

D|-8--8-8-8-8----0-8h10p8------------------------------8--8-8-8-8----------|
A|-10-10101010---6--------10-8-10-11-10-8--------------10-10101010---------|
F|-10-10101010---7------------------------10-----------10-10101010---------|
C|-8--8-8-8-8----0-----------------------------8-8888--8--8-8-8-8----------|
G|-8--8-8-8-8----0-----------------------------8-8888--8--8-8-8-8----------|
C|---------------------------------------------8-8888--8--8-8-8-8----------|

D|-8--8-8-8-8---8--8-8-8-8-------------------------------------------------|
A|-10-10101010--10-10101010------------------------------------------------|
F|-9--9-9-9-9---9--9-9-9-9-------------------------------------------------|
C|-8--8-8-8-8---8--8-8-8-8-------------------------------------------------|
G|-8--8-8-8-8---8--8-8-8-8-------------------------------------------------|
C|-8--8-8-8-8---8--8-8-8-8-------------------------------------------------|

This Is The Second Bridge/Break Thing
Play This 4 Times

D|----8------8------8---------8------8------8------------------------------|
A|-----10-----10-----10--------10-----10-----10----------------------------|
F|-------10-----10-----10--------10-----10-----10--------------------------|
C|-0-----------------------8-----------------------------------------------|
G|-0-----------------------8-----------------------------------------------|
C|-0-----------------------8-----------------------------------------------|


| /  Slide Up
| \  Slide Down
| h  Hammer-On
| p  Pull-Off
| ~  Vibrato
| *  Harmonic
| x  Mute Note
Tap to rate this tab
 
# A B C D E F G H I J K L M N O P Q R S T U V W X Y Z