Song name
# A B C D E F G H I J K L M N O P Q R S T U V W X Y Z

November Blessing - Storms tab

Ok, so I looked and looked for the longest time, and these tabs were nowhere to be
That's incredible, such an amazing song should have tabs up everywhere! but i guess not, 
i
by ear and came up with these:) I hope you like it. Im pretty sure they are at least 90% 
i was staring at Randy Romances hands in one of his live videos of this song,
it seems almost exact.
Here's a link to a cover i made with how these tabs are supposed to sound (i messed up a
though):: http://www.youtube.com/watch?v=3useSbokkak
my myspace:: http://www.myspace.com/annaanimosity

[intro]
D|--x--x-x-x-x--x--x-x-x-x-10-10101010--8--8-8-8-8-|
A|-10-10101010-10-10101010-10-10101010-10-10101010-|
F|-10-10101010-10-10101010-10-10101010-10-10101010-|
C|--0--0-0-0-0--0--0-0-0-0--0--0-0-0-0--0--0-0-0-0-|
G|--0--0-0-0-0--0--0-0-0-0--0--0-0-0-0--0--0-0-0-0-|
C|--0--0-0-0-0--0--0-0-0-0--0--0-0-0-0--0--0-0-0-0-|

D|--x--x-x-x-x--x--x-x-x-x--x--x-x-x-x--x--x-x-x-x-|
A|-10-10101010-10-10101010-11-11111111-10-10101010-|
F|-10-10101010-10-10101010-10-10101010-10-10101010-|
C|--8--8-8-8-8--8--8-8-8-8--8--8-8-8-8--8--8-8-8-8-|
G|--8--8-8-8-8--8--8-8-8-8--8--8-8-8-8--8--8-8-8-8-|
C|--8--8-8-8-8--8--8-8-8-8--8--8-8-8-8--8--8-8-8-8-|

D|--x--x-x-x-x--x--x-x-x-x-10-10101010--8--8-8-8-8-|
A|-10-10101010-10-10101010-10-10101010-10-10101010-|
F|-10-10101010-10-10101010-10-10101010-10-10101010-|
C|--0--0-0-0-0--0--0-0-0-0--0--0-0-0-0--0--0-0-0-0-|
G|--0--0-0-0-0--0--0-0-0-0--0--0-0-0-0--0--0-0-0-0-|
C|--0--0-0-0-0--0--0-0-0-0--0--0-0-0-0--0--0-0-0-0-|

D|--x--x-x-x-x--x--x-x-x-x--x--x-x-x-x--x--x-x-x-x--x~|
A|-10-10101010-10-10101010-11-11111111-10-10101010-10~|
F|-10-10101010-10-10101010-10-10101010-10-10101010-10~|
C|--8--8-8-8-8--8--8-8-8-8--8--8-8-8-8--8--8-8-8-8--0~|
G|--8--8-8-8-8--8--8-8-8-8--8--8-8-8-8--8--8-8-8-8--0~|
C|--8--8-8-8-8--8--8-8-8-8--8--8-8-8-8--8--8-8-8-8--0~|

[verse 1]
D|------------x--x-x-x-x--x--x-x-x-x--x--x-x-x-x--x--x-x-x-x-|
A|-[silence]-10-10101010-10-10101010-11-11111111-10-10101010-|
F|-----------10-10101010-10-10101010-10-10101010-10-10101010-|
C|------------8--8-8-8-8--8--8-8-8-8--8--8-8-8-8--8--8-8-8-8-|
G|------------8--8-8-8-8--8--8-8-8-8--8--8-8-8-8--8--8-8-8-8-|
C|------------8--8-8-8-8--8--8-8-8-8--8--8-8-8-8--8--8-8-8-8-|
"we might have           friction sometimes.."

D|--x--x-x-x-x--x--x-x-x-x-10-10101010--8--8-8-8-8-|
A|-10-10101010-10-10101010-10-10101010-10-10101010-|
F|-10-10101010-10-10101010-10-10101010-10-10101010-|
C|--0--0-0-0-0--0--0-0-0-0--0--0-0-0-0--0--0-0-0-0-|
G|--0--0-0-0-0--0--0-0-0-0--0--0-0-0-0--0--0-0-0-0-|
C|--0--0-0-0-0--0--0-0-0-0--0--0-0-0-0--0--0-0-0-0-|
"..and I know I'm a.."

D|--x--x-x-x-x--x--x-x-x-x--x--x-x-x-x--x--x-x-x-x-|
A|-10-10101010-10-10101010-11-11111111-10-10101010-|
F|-10-10101010-10-10101010-10-10101010-10-10101010-|
C|--8--8-8-8-8--8--8-8-8-8--8--8-8-8-8--8--8-8-8-8-|
G|--8--8-8-8-8--8--8-8-8-8--8--8-8-8-8--8--8-8-8-8-|
C|--8--8-8-8-8--8--8-8-8-8--8--8-8-8-8--8--8-8-8-8-|
"..selfish person.."

D|--x--x-x-x-x--x--x-x-x-x-10-10101010--8--8-8-8-8-|
A|-10-10101010-10-10101010-10-10101010-10-10101010-|
F|-10-10101010-10-10101010-10-10101010-10-10101010-|
C|--0--0-0-0-0--0--0-0-0-0--0--0-0-0-0--0--0-0-0-0-|
G|--0--0-0-0-0--0--0-0-0-0--0--0-0-0-0--0--0-0-0-0-|
C|--0--0-0-0-0--0--0-0-0-0--0--0-0-0-0--0--0-0-0-0-|
"..believe me sweetie.."

D|--x--x-x-x-x--x--x-x-x-x--x--x-x-x-x--x--x-x-x-x-|
A|-10-10101010-10-10101010-11-11111111-10-10101010-|
F|-10-10101010-10-10101010-10-10101010-10-10101010-|
C|--8--8-8-8-8--8--8-8-8-8--8--8-8-8-8--8--8-8-8-8-|
G|--8--8-8-8-8--8--8-8-8-8--8--8-8-8-8--8--8-8-8-8-|
C|--8--8-8-8-8--8--8-8-8-8--8--8-8-8-8--8--8-8-8-8-|
"..I understand completely.."

D|--x--x-x-x-x--x--x-x-x-x-10-10101010--8--8-8-8-8-|
A|-10-10101010-10-10101010-10-10101010-10-10101010-|
F|-10-10101010-10-10101010-10-10101010-10-10101010-|
C|--0--0-0-0-0--0--0-0-0-0--0--0-0-0-0--0--0-0-0-0-|
G|--0--0-0-0-0--0--0-0-0-0--0--0-0-0-0--0--0-0-0-0-|
C|--0--0-0-0-0--0--0-0-0-0--0--0-0-0-0--0--0-0-0-0-|
"..just know that you.."

D|--x~---x~-|
A|-10~--10~-|
F|-10~--10~-|
C|--8~---8~-|
G|--8~---8~-|
C|--8~---8~-|
"..make me happy."

[chorus]
D|--x--x-x-x-x--x--x-x-x-x--x--x-x-x-x--x--x-x-x-x-|
A|-10-10101010-10-10101010-10-10101010-10-10101010-|
F|-10-10101010-10-10101010-10-10101010-10-10101010-|
C|--0--0-0-0-0--0--0-0-0-0--0--0-0-0-0--0--0-0-0-0-|
G|--0--0-0-0-0--0--0-0-0-0--0--0-0-0-0--0--0-0-0-0-|
C|--0--0-0-0-0--0--0-0-0-0--0--0-0-0-0--0--0-0-0-0-|
"Fighting and screaming begin the deep breathing.."

D|--x--x-x-x-x--x--x-x-x-x--x--x-x-x-x--x--x-x-x-x-|
A|-10-10101010-10-10101010-10-10101010-10-10101010-|
F|-10-10101010-10-10101010-10-10101010-10-10101010-|
C|--8--8-8-8-8--8--8-8-8-8-10-10101010-10-10101010-|
G|--8--8-8-8-8--8--8-8-8-8-10-10101010-10-10101010-|
C|--8--8-8-8-8--8--8-8-8-8-10-10101010-10-10101010-|
"..but you know I cant live without you.."

D|--x--x-x-x-x--x--x-x-x-x--x--x-x-x-x--x--x-x-x-x-|
A|-10-10101010-10-10101010-10-10101010-10-10101010-|
F|-10-10101010-10-10101010-10-10101010-10-10101010-|
C|--0--0-0-0-0--0--0-0-0-0--0--0-0-0-0--0--0-0-0-0-|
G|--0--0-0-0-0--0--0-0-0-0--0--0-0-0-0--0--0-0-0-0-|
C|--0--0-0-0-0--0--0-0-0-0--0--0-0-0-0--0--0-0-0-0-|
"..hearts have been broken and we have all spoken.."

D|--x--x-x-x-x--x--x-x-x-x--x--x-x-x-x--x--x-x-x-x--x--x-x-x-x--x--x-x-x-x-|
A|-10-10101010-10-10101010-10-10101010-10-10101010-10-10101010-10-10101010-|
F|-10-10101010-10-10101010-10-10101010-10-10101010-10-10101010-10-10101010-|
C|--8--8-8-8-8--8--8-8-8-8-10-10101010-10-10101010-10-10101010-10-10101010-|
G|--8--8-8-8-8--8--8-8-8-8-10-10101010-10-10101010-10-10101010-10-10101010-|
C|--8--8-8-8-8--8--8-8-8-8-10-10101010-10-10101010-10-10101010-10-10101010-|
"..we felt love and pain.."

D|--x-|
A|-10-|
F|-10-|
C|--0-|
G|--0-|
C|--0-|
"..too."

[interlude i think its called]
D|-8-------8-------8--------x--x-x-x-x--x--x-x-x-x--x--x-x-x-x--x--x-x-x-x-|
A|---10------10------10----10-10101010-10-10101010-11-11111111-10-10101010-|
F|------10------10------10-10-10101010-10-10101010-10-10101010-10-10101010-|
C|--------------------------8--8-8-8-8--8--8-8-8-8--8--8-8-8-8--8--8-8-8-8-|
G|--------------------------8--8-8-8-8--8--8-8-8-8--8--8-8-8-8--8--8-8-8-8-|
C|--------------------------8--8-8-8-8--8--8-8-8-8--8--8-8-8-8--8--8-8-8-8-|

D|--x----8h10p8--------------------|
A|-10-10--------10-8-10-11-10-8----|
F|-10---------------------------10-|
C|--0------------------------------|
G|--0------------------------------|
C|--0------------------------------|

D|--x--x-x-x-x--x--x-x-x-x--x--x-x-x-x--x--x-x-x-x--x~-|
A|-10-10101010-10-10101010-10-10101010-10-10101010-10~-|
F|-10-10101010-10-10101010--9--9-9-9-9--9--9-9-9-9-10~-|
C|--8--8-8-8-8--8--8-8-8-8--8--8-8-8-8--8--8-8-8-8--0~-|
G|--8--8-8-8-8--8--8-8-8-8--8--8-8-8-8--8--8-8-8-8--0~-|
C|--8--8-8-8-8--8--8-8-8-8--8--8-8-8-8--8--8-8-8-8--0~-|

[verse 2]
D|------------x--x-x-x-x--x--x-x-x-x--x--x-x-x-x--x--x-x-x-x-|
A|-[silence]-10-10101010-10-10101010-11-11111111-10-10101010-|
F|-----------10-10101010-10-10101010-10-10101010-10-10101010-|
C|------------8--8-8-8-8--8--8-8-8-8--8--8-8-8-8--8--8-8-8-8-|
G|------------8--8-8-8-8--8--8-8-8-8--8--8-8-8-8--8--8-8-8-8-|
C|------------8--8-8-8-8--8--8-8-8-8--8--8-8-8-8--8--8-8-8-8-|
"i would walk through          storms, trust me darling.."

D|--x--x-x-x-x--x--x-x-x-x-10-10101010--8--8-8-8-8-|
A|-10-10101010-10-10101010-10-10101010-10-10101010-|
F|-10-10101010-10-10101010-10-10101010-10-10101010-|
C|--0--0-0-0-0--0--0-0-0-0--0--0-0-0-0--0--0-0-0-0-|
G|--0--0-0-0-0--0--0-0-0-0--0--0-0-0-0--0--0-0-0-0-|
C|--0--0-0-0-0--0--0-0-0-0--0--0-0-0-0--0--0-0-0-0-|
"..every tear from your.."

D|--x--x-x-x-x--x--x-x-x-x--x--x-x-x-x--x--x-x-x-x-|
A|-10-10101010-10-10101010-11-11111111-10-10101010-|
F|-10-10101010-10-10101010-10-10101010-10-10101010-|
C|--8--8-8-8-8--8--8-8-8-8--8--8-8-8-8--8--8-8-8-8-|
G|--8--8-8-8-8--8--8-8-8-8--8--8-8-8-8--8--8-8-8-8-|
C|--8--8-8-8-8--8--8-8-8-8--8--8-8-8-8--8--8-8-8-8-|
"..eye starts sagging.."

D|--x--x-x-x-x--x--x-x-x-x-10-10101010--8--8-8-8-8-|
A|-10-10101010-10-10101010-10-10101010-10-10101010-|
F|-10-10101010-10-10101010-10-10101010-10-10101010-|
C|--0--0-0-0-0--0--0-0-0-0--0--0-0-0-0--0--0-0-0-0-|
G|--0--0-0-0-0--0--0-0-0-0--0--0-0-0-0--0--0-0-0-0-|
C|--0--0-0-0-0--0--0-0-0-0--0--0-0-0-0--0--0-0-0-0-|
"..my heart, and it.."

D|--x--x-x-x-x--x--x-x-x-x--x--x-x-x-x--x--x-x-x-x-|
A|-10-10101010-10-10101010-11-11111111-10-10101010-|
F|-10-10101010-10-10101010-10-10101010-10-10101010-|
C|--8--8-8-8-8--8--8-8-8-8--8--8-8-8-8--8--8-8-8-8-|
G|--8--8-8-8-8--8--8-8-8-8--8--8-8-8-8--8--8-8-8-8-|
C|--8--8-8-8-8--8--8-8-8-8--8--8-8-8-8--8--8-8-8-8-|
"..starts to soak in.."

D|--x--x-x-x-x--x--x-x-x-x-10-10101010--8--8-8-8-8-|
A|-10-10101010-10-10101010-10-10101010-10-10101010-|
F|-10-10101010-10-10101010-10-10101010-10-10101010-|
C|--0--0-0-0-0--0--0-0-0-0--0--0-0-0-0--0--0-0-0-0-|
G|--0--0-0-0-0--0--0-0-0-0--0--0-0-0-0--0--0-0-0-0-|
C|--0--0-0-0-0--0--0-0-0-0--0--0-0-0-0--0--0-0-0-0-|
"..i'd rather take death.."

D|--x~---x~-|
A|-10~--10~-|
F|-10~--10~-|
C|--8~---8~-|
G|--8~---8~-|
C|--8~---8~-|
"..than to hear them."

[play chorus]

[bridge??]
D|-8-------8-------8-------|
A|---10------10------10----|
F|------10------10------10-|
C|-------------------------|
G|-------------------------|
C|-------------------------|

D|--x-8-------8-------8-------|
A|-10---10------10------10----|
F|-10------10------10------10-|
C|--8-------------------------|
G|--8-------------------------|
C|--8-------------------------|

D|--x-8-------8-------8-------|
A|-10---10------10------10----|
F|-10------10------10------10-|
C|--0-------------------------|
G|--0-------------------------|
C|--0-------------------------|

D|--x-8-------8-------8-------|
A|-10---10------10------10----|
F|-10------10------10------10-|
C|--8-------------------------|
G|--8-------------------------|
C|--8-------------------------|[repeat this interlude until chorus comes in]

[play verse 1]

And thats it!! hope you liked this tab:] please rate:)
Tap to rate this tab
 
# A B C D E F G H I J K L M N O P Q R S T U V W X Y Z