November Blessing - Are You Watching Closely tab

November Blessing - Are you watching closely
Tabbed by Roooger - Robin.G-92@hotmail.com
Tuning - DROP D
PLEASE COMMENT!

   |......................................................................-->
e|----------------------3--33332--222-2-------------------------------------|
B|-0--00003--333-3--00--0--00000--000-0--00---------------------------------|
G|-4--44444--444-4--44--4--44444--444-4--44--0--00004--4444-4-44---------4--|
D|-5--55555--555-5--55--5--55555--555-5--55--2--22222--2222-2-22--0--00000--|
A|-3--33333--333-3--33--3--33333--333-3--33--2--22222--2222-2-22--0--00000--|
D|-------------------------------------------2--22222--2222-2-22--0--00000--|

   ........|x2    |................|x2 |................|x2
e|--------------------------------------------------------------------------|
B|----------------0-00000--0000-0-00----------------------------------------|
G|-4444-4-44------2-22222--2222-2-22---4-44444--4444-4-44-------------------|
D|-0000-0-00------2-22222--2222-2-22---5-55555--5555-5-55-------------------|
A|-0000-0-00------0-00000--0000-0-00---3-33333--3333-3-33-------------------|
D|-0000-0-00----------------------------------------------------------------|
  
                                         So you can run...!
e|--------------------------------------------------------------------------|
B|--------------------------------------------------------------------------|
G|-0--00004--4444-4-44--7-7-7-7-7-7-7-77-4~~~-------4---4---4---7-----------|
D|-2--22222--2222-2-22--7-7-7-7-7-7-7-77-5~~~-------2---0---5---7-----------|
A|-2--22222--2222-2-22--5-5-5-5-5-5-5-55-3~~~-------2---0---3---5-----------|
D|-2--22222--2222-2-22------------------------------2---0-------------------|

The last 4 chords rest of the song. 
Figure out the rest of the strums by yourself, just listen to the song :)
Ps. If you dont wanna tune down your guitar, use this chords:

e|----------------|
B|----------------|
G|------7---4---7-|
D|--2---5---5---7-|
A|--2---5---3---5-|
D|--0-------------|

So you can run...!
Towards me and hide all your tears
Because you gave me the best of my years
Because you gave me the best of my years
So let me tell you a little story
about the month of November and how you blessed me
So let me tell you a little story
Because you were my November Blessing
Are you watching closely
Are you watching closely...!

Enjoy the tab! :) PLEASE COMMENT!
 
Tap to rate this tab
 
# A B C D E F G H I J K L M N O P Q R S T U V W X Y Z