November Blessing - Thank You Angel tab

The tuning is not exactly 100% its about 90  but the tuning i play it in is DADFAD

This is a great song by Randy Romance which november blessing is his solo project name. 
learned by ear...took about 30 mins

enjoy



x =palm mute
- =dont play the string



Intro:  (0.00-0.31)
D|--0---0------0---0------0---0-----------0-----|
A|--0----0-----0----0-----0----0-----7-------7--|
F|--0-----0----0-----0----0-----0---------------|
D|--4----------5----------7---------------------| X4
A|--2----------3----------5---------------------|
D|--0-------------------------------------------|


D|--0-0--0-0-0-0----0-0--0-0-0-0-0----0-0--0-0-0-0-0-0-0-0-0-0--|
A|--0-0--0-0-0-0----0-0--0-0-0-0-0----0-0--0-0-0-0-0-7-7-7-7-7--|
F|--0-0--0-0-0-0----0-0--0-0-0-0-0----0-0--0-0-0-0-0-0-0-0-0-0--|
D|--4-4--4-4-4-4----5-5--5-5-5-5-5----7-7--7-7-7-7-7-7-7-7-7-7--|X2
A|--2-2--2-2-2-2----3-3--3-3-3-3-3----5-5--5-5-5-5-5-5-5-5-5-5--|
D|--0-0--0-0-0-0----0-0--0-0-0-0-0----0-0--0-0-0-0-0-0-0-0-0-0--|


|--0-0--0-0-0-0----0-0--0-0-0-0----0-0---0-0-0---0-0-0-0--|
|--0-0--0-0-0-0----0-0--0-0-0-0----0-0---0-0-0---0-0-0-0--|
|--0-0--0-0-0-0----0-0--0-0-0-0----0-0---0-0-0---0-0-0-0--|
|--7-7--7-7-7-7----5-5--5-5-5-5----8-8---8-8-8---7-7-7-7--|
|--8-8--8-8-8-8----8-8--8-8-8-8----8-8---8-8-8---8-8-8-8--|
|---------------------------------------------------------|


|--0-0--0-0-0-0----0-0--0-0-0-0-0-------------------------------------------|
|--0-0--0-0-0-0----0-0--0-0-0-0-0-------------------------------------------|
|--0-0--0-0-0-0----0-0--0-0-0-0-0-------------------------------------------|
|--4-4--4-4-4-4----5-5--5-5-5-5-5-------------------------------------------|
|--2-2--2-2-2-2----3-3--3-3-3-3-3----5--5-5-5-5--5--5-5-5-5--5-5-5--5-5-5-5-|
|--0-0--0-0-0-0----0-0--0-0-0-0-0----5--5-5-5-5--5--5-5-5-5--5-5-5--5-5-5-5-|


|--x-x-x-x-x-x-xxxx--|
|--x-x-x-x-x-x-xxxx--|
|--x-x-x-x-x-x-xxxx--|
|--x-x-x-x-x-x-xxxx--|     Then it just reapeats and thats it
|--x-x-x-x-x-x-xxxx--|
|--x-x-x-x-x-x-xxxx--|




Trsdt@yahoo.com
Tap to rate this tab
 
# A B C D E F G H I J K L M N O P Q R S T U V W X Y Z