Song name
# A B C D E F G H I J K L M N O P Q R S T U V W X Y Z

November Blessing - Faces tab

tuning is a full step down :     DGCFAD    
                             
                                 CAPO 3rd


                       
                       November Blessing
                   
                             "Faces" 
                     
                       Just the start '11




                             INTRO                      
      
D|----------------------------------------------------------------------|
G|---------------------0-----------------------------------0------0-----|
C|------0--------0-------0---0---0---------------------------0--------0-| x2
F|----4------------5-------5---5--------5----5/----7----7------7----7---|
A|--2-----2/-3-------3--------------------------------------------------|
D|------------------------------------3----3-----5----5-----------------|

                           Verse

|---------[-00-0-0---0-0--0-0---0-0--0---0-0--0-0--|
|---------[-00-0-0---0-0--0-0---0-0--0---0-0--0-0--|
|-9--9-9--[-00-0-0---0-0--0-0---0-0--0---0-0--0-0--| x 2   2nd time skip to
|-9--9-9--[-22-2-2---5-5--5-5---5-5--5---7-7--7-7--|            brackets
|-7--7-7--[-22-2-2---3-3--3-3---0-0--0---0-0--0-0--|
|---------[-00-0-0---0-0--0-0---3-3--3/--5-5--5-5--|


|-------------x--x--x----0-0-0-0-0--0-0-0-0-0--------------x--x--x----  
|-------------x--x--x----0-0-0-0-0--0-0-0-0-0--------------x--x--x----  
|-------------x--x--x----0-0-0-0-0--0-0-0-0-0--------------x--x--x----  
|--4-x-4/--5--x--x--x----5-5-5-5-5--7-7-7-7-7---4-x-2/--5--x--x--x----  
|--2-x-2/--3--x--x--x----3-3-3-3-3--5-5-5-5-5---2-x-2/--3--x--x--x----  
|-------------x--x--x----0-0-0-0-0--0-0-0-0-0--------------x--x--x----  
                                                    
                                           Pre-chrous

|--0-0-0-0-0--0-0-0-0-0--|           |--0-0-0-0-0-0-0-0-0-0-0-0-0-0-0-0-0|
|--0-0-0-0-0--0-0-0-0-0--|           |--0-0-0-0-0-0-0-0-0-0-0-0-0-0-0-0-0|
|--0-0-0-0-0--0-0-0-0-0--|           |--0-0-0-0-0-0-0-0-0-0-0-0-0-0-0-0-0|
|--5-5-5-5-5--7-7-7-7-7--|  x2 then: |--2/4-4-4-4/5-5-5-5/7-7-7-7/9-9-9-9|
|--0-0-0-0-0--0-0-0-0-0--|           |--0-0-0-0-0-0-0-0-0-0-0-0-0-0-0-0-0|
|--3-3-3-3-3--5-5-5-5-5--|           |--0-0-0-0-0-0-0-0-0-0-0-0-0-0-0-0-0|

            Chorus

|--0-0-0--0-0-0--0-0-0--0-0-0|
|--0-0-0--0-0-0--0-0-0--0-0-0|
|--0-0-0--0-0-0--0-0-0--0-0-0|
|--4-4-4--5-5-5--5-5-5--7-7-7| x 4 then go back to the verse section 
|--2-2-2--3-3-3--5-5-5--7-7-7|               and repeat
|--0-0-0--0-0-0--3-3-3--5-5-5|


Tap to rate this tab
 
# A B C D E F G H I J K L M N O P Q R S T U V W X Y Z