November Blessing - Far From Home tab

                             November blessing

                              Far From Home
     Drop C   Capo 3rd

     CGCFAD

After second time: go to next phrase then go back to beggining and repeat the whole 
intro 4 times

D|-------0--0-0-0---0-0-0-0------------------------]--2-2-2-2----|
A|-------0--0-0-0---0-0-0-0------------------------]-------------|
F|----5--5--5-5-5---2-2-2-2----------------------X2]-------------|
C|----5--5--5-5-5---2-2-2-2------------------------]-------------|
G|----3--3--3-3-3--------------2--2--2-2-2-2-2-----]--2-2-2-2----|
C|-----------------------------2--2--2-2-2-2-2-----]--2-2-2-2----|


|--0--0--0-0-0---0-0-0-0-0-0-0-0-0-0-0-0----|
|--0--0--0-0-0---0-0-0-0-0-0-0-0-0-0-0-0----|
|--0--0--0-0-0---7-7-7-7-5-5-5-5-2-2-2-2----|
|--0--0--0-0-0---7-7-7-7-5-5-5-5-2-2-2-2----|   X2   then back to intro riff
|--2--2--2-2-2---5-5-5-5-3-3-3-3-0-0-0-0----|
|--2--2--2-2-2---0-0-0-0-0-0-0-0-0-0-0-0----|



then bridge/ buildup part is a stretch but here it is:


|--------2/3--3------------3/5--5--|
|----------------------------------|
|----------------------------------| X 4 thats it.. the rest is just a
|-------------------5~-x--------7--|        variation of whats already here
|--2~-x-------2-----3~-x--------5--|
|--2~-x-------2--------------------|







                    Enjoy :D
Tap to rate this tab
 
# A B C D E F G H I J K L M N O P Q R S T U V W X Y Z