Song name
# A B C D E F G H I J K L M N O P Q R S T U V W X Y Z

November Blessing - The Man Youve Never Wanted tab

                             November blessing
               
                          The man youve never wanted


                        
                          Drop c  CGCFAD  capo 7th
Intro

D|--------------------------------------------------|                ---|
A|-----0------------0-----------6-----------7-------|                -7-|
F|----0---0--------0---0-------8---8-------7---7----|                -7-|
C|---5------5-----5------5----8------8----7------7--|   X 2 then end:-7-|
G|--3---------3--3-----------6-----------5----------|                -5-|
C|--------------------------------------------------|                ---|


Verse

|--0-0-00000--0-0-00000--0-0-00000--0-0-00000--|
|--0-0-00000--0-0-00000--0-0-00000--0-0-00000--|
|--0-0-00000--0-0-00000--0-0-00000--0-0-00000--|   X 4
|--5-5-55555--7-7-77777--9-9-99999--7-7-77777--|
|--3-3-33333--5-5-55555--7-7-99999--5-5-55555--|
|----------------------------------------------|


Chorus

|--0-0-0000000000--0-00--0-0-0000--|
|--0-0-0000000000--0-00--0-0-0000--|
|--0-0-0000000000--0-00--0-0-0000--|  X 4   Go back to verse and take all
|--2-2-2222222222--5-55--7-7-7777--|                    repeats.
|--2-2-2222222222--5-55--7-7-7777--|
|--2-2-2222222222--5-55--7-7-7777--|

The last time chrouse end on  |-----|
                              |-----|
                              |-----|
                              |--7--|
                              |--7--|
                              |--7--|

Bridge/midsection

|--0-00-0~--3/5-5555/7-77\5--0-00-0--2/3-3333\2-2222-2h3p0--
|--0-00-0~--0-0-0000-0-00-0--0-00-0--0-0-0000-0-0000-0-0-0--
|--5-55-5~--0-0-0000-0-00-0--5-55-5--0-0-0000-0-0000-0-0-0--
|--5-55-5~-------------------5-55-5-------------------------  X 4
|--3-33-3~-------------------3-33-3-------------------------     
|-----------------------------------------------------------


last part of bridge ends on: |--2/3-3333p20--|  repeat intro intro two times
                             |--0-0-0000--3--|
                             |--0-0-0000--0--|
                             |---------------|
                             |---------------|
                             |---------------|





              Enjoy :D       i will be putting up can i keep you tonight..
Tap to rate this tab
 
# A B C D E F G H I J K L M N O P Q R S T U V W X Y Z