Song name
# A B C D E F G H I J K L M N O P Q R S T U V W X Y Z

Novembers Doom - Leaving This tab

Help us improve GuitareTab! Take a short survey!
its bren again here u go. this time its in standard drop d

-------1-------------------------|
-----3----3----------------------|
---2--------2--------------------|  3X
-0------------0------------------|
---------------------------------|
---------------------------------|


-------1---------------------|
-----3---3-------------------|
---2-------2-----------------| 3X
-2-----------2---------------|
-----------------------------|
-----------------------------|

---------4---------------------------|
-------5---5-------------------------|
-----4-------4-----------------------| 3X
---6-----------6---------------------|
-------------------------------------|
-------------------------------------|


--------0------------------------|
------2---2----------------------|
----2-------2--------------------|2X
--2-----------2------------------|
---------------------------------|
---------------------------------|
Related for Leaving This tab