Song name
# A B C D E F G H I J K L M N O P Q R S T U V W X Y Z

Novembers Doom - Suffer The Red Dream tab

Itz me. Brendan Cowan



-------------------------------------------------------------|
-------------------------------------------------------------|
--14------14h16-----17-17-16-14---19-17-16-16---------12-----|
--14--14---------14-----------------------------------12-----|
--12--------------------------------------------------10-----|
-------------------------------------------------------------|




-----------------------------------------------------------------------|
-----------------------------------------------------------------------|
----14------14h16-----16--17-16-14-16--------19-17-16-16-----12--------|
----14---14--------14----------------------------------------12--------|
----12-------------------------------------------------------10--------|
-----------------------------------------------------------------------|
Tap to rate this tab
# A B C D E F G H I J K L M N O P Q R S T U V W X Y Z