Guitaretab - guitar tabs
Song name
# A B C D E F G H I J K L M N O P Q R S T U V W X Y Z

Novice - A Letter From A Friend tab

Intro & Verse:
      C#            C#          Em            B
e|---------------------------------------------------------------|
B|---------------------------------------------------------------|
G|---6--6--6------6--6--6--------------------4--4--4-------------|  
D|---6--6--6------6--6--6------2--2--2-------4--4--4-------------|
A|---4--4--4------4--4--4------2--2--2-------2--2--2-------------|
E|-----------------------------0--0--0---------------------------|

pre chorus:

         A                      A
e|---------------|    |---------5----------------|
B|---------------|    |---------5----------------|
G|---------------|    |---------6----------------|
D|--------7------| or |---------7----------------|
A|--------7------|    |---------7----------------|
E|--------5------|    |---------5----------------|

Chorus:

         B     C#    A     Em    B     C#     A
e|--------------------------------------------------------------|
B|--------------------------------------------------------------|
G|--------------------------------------------------------------|
D|-------9-----11----7-----2-----9-----11-----7-----------------|
A|-------9-----11----7-----2-----9-----11-----7-----------------|
E|-------7-----9-----5-----0-----7-----9------5-----------------|
                           or

       B     C#      A      Em     B      C#     A
e|---------------------------------------------------------------|
B|---------------------------------------------------------------|
G|-----4------6------2-------------4-----6------2----------------|
D|-----4------6------2------2------4-----6------2----------------|
A|-----2------4------0------2------2-----4------0----------------|
E|--------------------------0------------------------------------|


Verse:
[ Tab from: http://www.guitaretab.com/n/novice/79193.html ]
       C#           C#           Em             B
e|---------------------------------------------------------------|
B|---------------------------------------------------------------|
G|---6--6--6------6--6--6--------------------4--4--4-------------|  
D|---6--6--6------6--6--6------2--2--2-------4--4--4-------------|
A|---4--4--4------4--4--4------2--2--2-------2--2--2-------------|
E|-----------------------------0--0--0---------------------------|


Guitar 1:

        C#           C#           Em             B
e|---------------------------------------------------------------|
B|---------------------------------------------------------------|
G|---6--6--6------6--6--6------9--9--9-------4--4--4-------------|  
D|---6--6--6------6--6--6------9--9--9-------4--4--4-------------|
A|---4--4--4------4--4--4------7--7--7-------2--2--2-------------|
E|---------------------------------------------------------------|

Guitar 2:

     C#           D#           Em             B
e|---------------------------------------------------------------|
B|---------------------------------------------------------------|
G|---6--6--6------8--8--8--------------------4--4--4-------------|  
D|---6--6--6------8--8--8------2--2--2-------4--4--4-------------|
A|---4--4--4------6--6--6------2--2--2-------2--2--2-------------|
E|-----------------------------0--0--0---------------------------|     


Chorus

Bridge:


         C#        B        A    B
e|---------------------------------------------------------------|
B|---------------------------------------------------------------|
G|-----6-6-6-6---4-4-4-4----2----4-------------------------------|x2
D|-----6-6-6-6---4-4-4-4----2----4-------------------------------|
A|-----4-4-4-4---2-2-2-2----0----2-------------------------------|
E|---------------------------------------------------------------|

the part after the bridge for bass:

e|---------------------------------------------------------------|
B|---------------------------------------------------------------|
G|---------------------------------------------------------------|
D|---------------------------------------------------------------|
A|----2----4----0------------------------------------------------|
E|--------------------0------------------------------------------|


Chorus

This is my first tab ever so plz don't get mad at me if I messed up  :)
PNUT
Related for A Letter From A Friend tab
Advertisement will be closed in 10 seconds