Guitaretab - guitar tabs
Song name
# A B C D E F G H I J K L M N O P Q R S T U V W X Y Z

Now Noise - Tourette De Mar tab

E||---------------------------|--------------------------|
B||---------------------------|--------------------------|
G||*--------------------------|--------------------------|
D||*--------------------------|--------------------------|
A||---------------------------|--------3--3--2--2--------|
E||---0--0--0--0--0--0--0--0--|--0--0--------------3--3--|


                                                            2x
--------------------------|---------------------------------||
--------------------------|---------------------------------||
--------------------------|--------------------------------*||
--------------------------|-----------------------2--3--5--*||
--------------------------|--------------2--3--5------------||
--2--2--2--2--2--2--2--2--|--3--3--5--5---------------------||

---------------------------|--------------------------|
---------------------------|--------------------------|
*--------------------------|--------------------------|
*--------------------------|--------------------------|
---------------------------|--------------------------|
---0--0--0--0--0--0--0--0--|--0--0--0--0--0--0--0--0--|


                                                      2x
--------------------------|---------------------------||
--------------------------|---------------------------||
--------------------------|--------------------------*||
--------------------------|--------------------------*||
--------------------------|---------------------------||
--1--1--1--1--1--1--1--1--|--1--1--1--1--1--1--1--1---||

---------------------------|---------------------|--------------------------|
---------------------------|---------------------|--------------------------|
*--------------------------|---------------------|--------------------------|
*--------------------------|---------------------|--------------------------|
------------7-----------5--|---------------------|-----------7-----------5--|
---0--0--0-----x--7--x-----|------0----0----0----|--0--0--0-----x--7--x-----|


                          2x
--------------------------||-------------------------|-------------------------|
--------------------------||-------------------------|-------------------------|
-------------------------*||*------------------------|-------------------------|
-------------------------*||*------------------------|-------------------------|
-----------3--------2~----||-----------------8----7--|-----------------8----7--|
--x--5--x-----0--0--------||---0----0--0--0----------|--10----0--0--0----------|


                                                    2x
-------------------------|--------------------------||
-------------------------|--------------------------||
-------------------------|-------------------------*||
-------------------------|-------------------------*||
-----------------8----7--|--------------------------||
--10----0--0--0----------|--10--0--0--0--3----7-----||


                                                         4x
-----------------------------|---------------------------||
-----------------------------|---------------------------||
*----------------------------|--------------------------*||
*----------------------------|--------------------------*||
-----------------------------|-----6-----5-----4-----3---||
---0--0-0-0--0--0-0-0--0--0--|--0-----x-----x-----x------||

---------------------------|-------------------------|
---------------------------|-------------------------|
*--------------------------|-------------------------|
*--------------------------|-------------------------|
---------------------------|-------------------------|
---4--5--0--0--4--5--0--0--|--4--5--0--0--0----0--0--|
[ Tab from: http://www.guitaretab.com/n/now-noise/42200.html ]
--------------------------|-------------------------|--------------------------|
--------------------------|-------------------------|--------------------------|
--------------------------|-------------------------|--------------------------|
--------------------------|-------------------------|--------------------------|
--------------------------|-------------------------|--------------------------|
--4--5--0--0--4--5--0--0--|--4--5--0--5--4--0--2----|--4--5--0--0--4--5--0--0--|

-------------------------|--------------------------|
-------------------------|--------------------------|
-------------------------|--------------------------|
-------------------------|--------------------------|
-------------------------|--------------------------|
--4--5--0--0--0----0--0--|--4--5--0--0--4--5--0--0--|


                          4x
--------------------------||---------------------|---------------------|
--------------------------||---------------------|---------------------|
-------------------------*||*--------------------|---------------------|
-------------------------*||*--------------------|----------------5----|
--------------------------||---------------------|---------------------|
--4--5--0--7--6--0--3-----||---0--------0--------|--0--------0---------|


                                            4x
--------------------|-----------------------||---------------------|
--------------------|-----------------------||---------------------|
--------------------|----------------------*||*--------------------|
--------------------|----------------------*||*--------------------|
--------------------|----------------6--5---||---------------------|
--0--------0--------|--0--------0-----------||---0--------0--------|

---------------------|--------------------|----------------------|
---------------------|--------------------|----------------------|
---------------------|--------------------|----------------------|
---------------------|--------------------|----------------------|
----------------3----|--------------------|----------------4--3--|
--0--------0---------|--0--------0--------|--0--------0----------|

--------------------|--------------------|-------------------|
--------------------|--------------------|-------------------|
--------------------|--------------------|-------------------|
--------------------|--------------------|-------------------|
--------------------|--------------------|-------------------|
--0--------3--------|--2----5------------|--8----------------|


                     4x
---------------------||--------------------|--------------------|
---------------------||--------------------|--------------------|
--------------------*||--------------------|--------------------|
--------------------*||--------------------|--------------------|
---------------------||--------------------|--------------------|
--5------------3-----||--0--------3--------|--2----5------------|

--------------------|---------------------|--------------------|
--------------------|---------------------|--------------------|
--------------------|---------------------|--------------------|
--------------------|---------------------|--------------------|
--------------------|---------------------|--------------------|
--0--------3--------|--2----5----3--------|--0--------3--------|

--------------------|-------------------|--------------------||
--------------------|-------------------|--------------------||
--------------------|-------------------|--------------------||
--------------------|-------------------|--------------------||
--------------------|-------------------|--------------------||
--2----5------------|--8----------------|--5------------3----||
Related for Tourette De Mar tab