Song name
# A B C D E F G H I J K L M N O P Q R S T U V W X Y Z

Now Now - Dead Oaks tab

SONG: Dead Oaks
BAND: Now, Now (Every Children)
BAND WEBSITE: http://nownowband.com/
TABBED BY: Chelsea May Perez / chelseamayperez@gmail.com

~ Many people requested me to post the tabs, so here they are.
~ I'm sure you can figure out the strumming patterns just by listening to the song.
~ I learned the song by ear, although I am aware the tabs are not quite right. 
However, this is my version and it sounds pretty all right to me. People on 
YouTube seem to think so. :p 
~ I covered this song. It's posted on YouTube right here:
http://www.youtube.com/watch?v=mfvWYVAZ34I

Happy playing! :D
E-mail me if you have any questions or need clarification.

INTRO:

|-------------------------|
|-xxxxx--x--xxxxxx--xx--x-|
|-66666--9--666666--77--6-|
|-77777--7--777777--77--7-| (2x)
|-00000--0--000000--00--0-|
|-00000--0--000000--00--0-|

VERSE:

1~I can't feel...  but I can see them. And
2~I can take a...  and I can drive for hours to your
3~wanted me        to
|---------------------------------|
|-x----------------x--------------|
|-6----------------6--------------|
|-7----------------7--------------|
|-0----------------5--------------|
|-0----------------0--------------|

1~I can't call...  a reason.
2~house in the...  I could stay for longer if you
|---------------------------------|
|-x----------------x--------------|
|-x----------------x--------------|
|-7----------------7--------------|
|-7----------------7--------------|
|-9----------------7--------------|

CHORUS:

1~I've been        up and I don't sleep
2~I've been        up and I don't sleep
3~I've been        up and I don't sleep
|---------------------------------|
|-x----------------x--------------|
|-6----------------6--------------|
|-7----------------7--------------|
|-0----------------5--------------|
|-0----------------0--------------|
 (*)

1~enough and I...  talk as much, but I can hear you still \\\ On “still,” 
2~enough and I...  talk as much, but I can hear you still /// go back to (*)
3~enough and I...  talk as much, but I can hear your
|---------------------------------|
|-x----------------x--------------|
|-x----------------x--------------|
|-7----------------7--------------|
|-7----------------7--------------|
|-9----------------7--------------|

POST-CHORUS:

1~voice on the     phone when you're
2~room because...  up
|---------------------------------|
|-x----------------x--------------|
|-6----------------6--------------|
|-7----------------7--------------|
|-0----------------5--------------|
|-0----------------0--------------|

1~up all           alone in your
2~too              ...
|---------------------------------|
|-x----------------x--------------|
|-x----------------x--------------|
|-7----------------7--------------|
|-7----------------7--------------|
|-9----------------7--------------|

OUTRO:

|--------------------------|
|-xxxxx--x--xxxxxx--xx--xx-|
|-66666--9--666666--77--66-|
|-77777--7--777777--77--77-| (2x)
|-00000--0--000000--00--00-|
|-00000--0--000000--00--00-|

LYRICS:
I can't feel your bones, but I can see them.
And I can't call you up without a reason.
I can take you a thousand miles, 
and I can drive for hours to your house in the summer.
But I could stay for longer if you wanted me to.

I've been up and I don't sleep enough.
And I know we don't talk as much,
but I can hear you still.

I can hear your voice on the phone 
when you're up all alone in your room
because I am up too.
Tap to rate this tab
# A B C D E F G H I J K L M N O P Q R S T U V W X Y Z