Song name
# A B C D E F G H I J K L M N O P Q R S T U V W X Y Z

Now Now - Separate Rooms tab

-------------------------------------------------------------------------------
                                   SEPARATE ROOMS - Now Now
-------------------------------------------------------------------------------
Tabbed by: Patrick Bozek
E-mail: patrick_bozek@hotmail.com

Tuning: EAC#EBe

Pay attention to the tuning, it isn't standard. The fourth string is down half
a step and the third string is down 2 steps. The studio version of this song
is heavy in other instrumentation, however when they play it live, this is
what they play. For an idea of what they're doing (strumming and timing), 
check out their performance at The Impact:

http://www.youtube.com/watch?v=YBogwJLZLL4

Intro:
e |-------------------| x2
B |-------------------|
E |-------------------|
C#|-------------------|
A |--8-8-8-8-8-8-8-8--|
E |--6-6-6-6-6-6-6-6--|

Verse: Guitar 1
e |------------------------------------|
B |------------------------------------|
E |------------------------------------|
C#|------------------------------------|
A |--8-8-8-8-8-8-8-8--6-6-6-6-6-6-6-6--|
E |--6-6-6-6-6-6-6-6--4-4-4-4-4-4-4-4--|

Verse: Guitar 2
e |------------------------------------|
B |--11---------------11---------------|
E |-----10---------------11------------|
C#|------------------------------------|
A |------------------------------------|
E |------------------------------------|

Chorus: Guitar 1 
           (second bar optional, or just play the first bar instead four times)
e |------------------------------------|---------------------------------------| x2
B |------------------------------------|---------------------------------------|
E |------------------------------------|---------------------------------------|
C#|------------------------------------|---------------------------------------|
A |-10-10-10-10-8-8-8-8-6-6-6-6-6-6-6-6|-13-13-13-13-8-8-8-8-6-6-6-6-6-6-6-6---|
E |--8--8--8--8-6-6-6-6-4-4-4-4-4-4-4-4|-11-11-11-11-6-6-6-6-4-4-4-4-4-4-4-4---|

Chorus: Guitar 2
e |------------------------------------| x8
B |--------4-----4h6p4-----------------|
E |-----6-----6--------6---------------|
C#|--6---------------------------------|
A |------------------------------------|
E |------------------------------------|

Verse: Guitar 1
e |------------------------------------| x4
B |------------------------------------|
E |------------------------------------|
C#|------------------------------------|
A |--8-8-8-8-8-8-8-8--6-6-6-6-6-6-6-6--|
E |--6-6-6-6-6-6-6-6--4-4-4-4-4-4-4-4--|

Verse: Guitar 2
e |------------------------------------------| x2
B |------------------------------------------|
E |--11-11-11-11-11-11-11-11-11-11-(10)-(10)-|
C#|------------------------------------------|
A |------------------------------------------|
E |------------------------------------------|

e |--------------------------------------| x2
B |--4-4-4-4-4-4-4-4-4-4-6-6-------------|
E |--6-6-6-6-6-6-6-6-6-6-6-6-------------|
C#|--6-6-6-6-6-6-6-6-6-6-6-6-------------|
A |--------------------------------------|
E |--------------------------------------|

Bridge:
e |------------------------------------------------------------------------------------|
B |------------------------------------------------------------------------------------|
E |------------------------------------------------------------------------------------|
C#|------------------------------------------------------------------------------------|
A |--13-13-13-13-13-13-13-13-13-13-13-13-6-6-6-6-6-6-6-6-6-6-6-6-5-5-5-5-5-5-5-5-5-5-5-|
E |--11-11-11-11-11-11-11-11-11-11-11-11-4-4-4-4-4-4-4-4-4-4-4-4-3-3-3-3-3-3-3-3-3-3-3-|

e |------------------------------------------------------------------------------------|
B |------------------------------------------------------------------------------------|
E |------------------------------------------------------------------------------------|
C#|-------------------------------------9-9-9-9-9-9-9-9-9-9-9-9------------------------|
A |-10-10-10-10-10-10-10-10-10-10-10-10-6-6-6-6-6-6-6-6-6-6-6-6-6-6-6-6-6-6-6-6-6-6-6-6|
E |--8--8--8--8--8--8--8--8--8--8--8--8-------------------------4-4-4-4-4-4-4-4-4-4-4-4|

e |---------------------------------------------------------------------------|
B |---------------------------------------------------------------------------|
E |---------------------------------------------------------------------------|
C#|--------------------------------------------------9-9-9-9-9-9-9-9-9-9-9-9--|
A |--5-5-5-5-5-5-5-5-5-5-5-5-3-3-3-3-3-3-3-3-3-3-1-1-6-6-6-6-6-6-6-6-6-6-6-6--|
E |--3-3-3-3-3-3-3-3-3-3-3-3-3-3-3-3-3-3-3-3-3-3-3-3--------------------------|

Outro: Guitar 1
e |------------------------------------| x2
B |------------------------------------|
E |------------------------------------|
C#|------------------------------------|
A |--8-8-8-8-8-8-8-8--6-6-6-6-6-6-6-6--|
E |--6-6-6-6-6-6-6-6--4-4-4-4-4-4-4-4--|

Outro: Guitar 2
e |------------------------------------| x2
B |--11---------------11---------------|
E |-----10---------------11------------|
C#|------------------------------------|
A |------------------------------------|
E |------------------------------------|



Cheers.
Tap to rate this tab
 
# A B C D E F G H I J K L M N O P Q R S T U V W X Y Z