Song name
# A B C D E F G H I J K L M N O P Q R S T U V W X Y Z

Now Now - Prehistoric tab

-------------------------------------------------------------------------------
                                PREHISTORIC - NOW NOW
-------------------------------------------------------------------------------
Tabbed by: Patrick Bozek
E-mail: patrick_bozek@hotmail.com

A few people emailed me to tab this one out, well here it is. The times in the 
bracket indicate when the part starts during the studio version of the song.
If you want a good idea of how to play the song live, check out their 
Chalk TV performance: http://www.youtube.com/watch?v=dtGfidbjGVI

Tuning: DADF#Be

(0:06) I know this will mess up things...
e |------------------|------------------| (x4)
B |------------------|------------------|
F#|------------------|------------------|
D |--2-2-2-2-2-2-2-2-|-2-2-2-2-2-2-2-2--|
A |--0-0-0-0-0-0-0-0-|-0-0-0-0-0-0-0-0--|
D |--0-0-0-0-0-0-0-0-|-2-2-2-4-4-4-4-4--|
    P.M.................................

(0:30) Play this section twice
e |-------------------|---------------------------|
B |--7-7-7-7-9-9-9-9--|--10-10-10-10-10-10-10-10--|
F#|--x-x-x-x-x-x-x-x--|--x--x--x--x--x--x--x--x---|
D |--7-7-7-7-9-9-9-9--|--11-11-11-11-11-11-11-11--|
A |-------------------|---------------------------|
D |-------------------|---------------------------|

e |-------------------|---------------------------| 
B |--7-7-7-7-9-9-9-9--|--10-10-10-10-12-12-10-10--|
F#|--x-x-x-x-x-x-x-x--|--x--x--x--x--x--x--x--x---|
D |--7-7-7-7-9-9-9-9--|--11-11-11-11-11-11-11-11--|
A |-------------------|---------------------------|
D |-------------------|---------------------------|

(0:53) It may be different now...
e |------------7--| (x16)
B |--------10-----|
F#|-----7---------|
D |--9------------|
A |---------------|
D |---------------|

(1:16) I would trade this sleep for you...
e |------------------|------------------| (x4)
B |------------------|------------------|
F#|------------------|------------------|
D |--2-2-2-2-2-2-2-2-|-2-2-2-2-2-2-2-2--|
A |--0-0-0-0-0-0-0-0-|-0-0-0-0-0-0-0-0--|
D |--0-0-0-0-0-0-0-0-|-2-2-2-4-4-4-4-4--|
    P.M.................................

(1:38) Each day you come closer...
[Note: this isn't originally played on a guitar]
e |--9-----9-----9------| (x3)
B |-----7-----9-----10--|
F#|---------------------|
D |---------------------|
A |---------------------|
D |---------------------|

(1:57) But I know if I turn around...
e |--------------| (x2)
B |--------------|
F#|--------------|
D |--------------|
A |-------0---0--|
D |--0--2---4----|

(2:08) It may be different now...
e |------------7--| (x16)
B |--------10-----|
F#|-----7---------|
D |--9------------|
A |---------------|
D |---------------|

(2:31) Stuck like those prehistoric...
e |-------------------|-------------------| (x4)
B |-------------------|-------------------|
F#|-------------------|-------------------|
D |--2-2-2-2-2-2-2-2--|--2-2-2-2-2-2-2-2--|
A |--4-4-4-4-0-0-0-0--|--4-4-4-4-0-0-0-0--|
D |--4-4-4-4-0-0-0-0--|--4-4-4-4-0-0-2-2--|
    P.M...................................

(2:56) Play this section twice
e |-------------------|---------------------------|
B |--7-7-7-7-9-9-9-9--|--10-10-10-10-10-10-10-10--|
F#|--x-x-x-x-x-x-x-x--|--x--x--x--x--x--x--x--x---|
D |--7-7-7-7-9-9-9-9--|--11-11-11-11-11-11-11-11--|
A |-------------------|---------------------------|
D |-------------------|---------------------------|

e |-------------------|---------------------------| 
B |--7-7-7-7-9-9-9-9--|--10-10-10-10-12-12-10-10--|
F#|--x-x-x-x-x-x-x-x--|--x--x--x--x--x--x--x--x---|
D |--7-7-7-7-9-9-9-9--|--11-11-11-11-11-11-11-11--|
A |-------------------|---------------------------|
D |-------------------|---------------------------|

(3:19) 
e |--------------| (x4)
B |--------------|
F#|--------------|
D |--------------|
A |-------0---0--|
D |--0--2---4----|

Then end on one last open D on the 6th string.

That's all the parts in the song, you can arrange the first and second guitar
however you like. Enjoy.
Tap to rate this tab
# A B C D E F G H I J K L M N O P Q R S T U V W X Y Z