Song name
# A B C D E F G H I J K L M N O P Q R S T U V W X Y Z

Nrg - Instruments Of Destruction tab

"Instruments of Destruction"
by NRG

Dedicated to the Killdozer

AH-Artificial Harmonic
NH-Natural Harmonic
b-bend
\-dive,dip with whammy bar


Intro
e|---------------------------------|
B|---------------------------------|
G|---------------------------------| 
D|---------------------------------|
A|--9-----------5---4-3-3--2\------|
E|--7-----------3---2-1-1--0\------|
                          (dive)

Fill after intro

e|---------------------------------|
B|---------------------------------|
G|----------11b(12)----------------| 
D|-----9---------------------------|
A|---------------------------------|
E|---------------------------------|
          
            
Verse                 1st Ending      2nd
e|-------------------|--------------|-----------------------|
B|-------------------|--------------|-----------------------|
G|-------------------|--------------|-----4-4-4-4-4-4-4-4---|
D|-------4-4---------|------2-----2-|-----2-2-2-2-2-2-2-2---|
A|-3-4---2-2---3-4\--|--4-5-----5---|-4-5-------------------|
E|-1-2---------1-2\--|--------------|-----------------------|


Chorus                  1st,3rd       2nd (Maybe)
e|---------------------|------------|--------------------|
B|---------------------|------------|---------(7)\6/(7)--|
G|---------------------|------------|---4-(7)------------| 
D|-4-4-4-4-4-5---4-4-4-|--------(5)-|-4------------------|
A|-2-2-2-2-2-3---2-2-2-|-(2)-(4)----|--------------------|
E|---------------------|------------|--------------------|
                        AH AH AH      NH NH,dip,return             

   4th
e|---------------------------------|
B|---------------------------------|
G|---------------------------------| 
D|-4-4-4-4-4-5--4\-----------------|
A|-2-2-2-2-2-3--2\-----------------|
E|---------------------------------|
                Dive


More Chorus
e|------------------------------------------------------------|
B|------------------------------------------------------------|
G|------------------------------------------------------------| 
D|---------7----------------------------7---4-----------------|
A|-2---5---5-----2---5---2------2---5---5---2---5---2---------|
E|-0-x-3-x-------0-x-3-x-0------0-x-3-x-------x-3-x-0---------|



Solo (The first part, anyway)
e|-------------------------12b-12-9-12b-(something)------|
B|-4b(6)-4-0---2------------------------------------12b--|
G|-----------2---2---------------------------------------| 
D|-----------------0-(2)---------------------------------|
A|-------------------------------------------------------|
E|-------------------------------------------------------|


The most over-the-top bad ass motherfucker ever.
http://www.youtube.com/watch?v=24n77GgRtrw


Transformers are cool too.
http://www.youtube.com/watch?v=daVsSZ4qLiQ
Tap to rate this tab
 
# A B C D E F G H I J K L M N O P Q R S T U V W X Y Z