Song name
# A B C D E F G H I J K L M N O P Q R S T U V W X Y Z

Nrg - Instruments Of Destruction tab

Intro

E||----------------------------------|----------------------------------|
B||----------------------------------|----------------------------------|
G||----------------------------------|----------------------------------|
D||--9----9--9--9--9--9--9--9--9--9--|--5----5--5--5--5-----4-----3-----|
A||--9----9--9--9--9--9--9--9--9--9--|--5----5--5--5--5-----4-----3-----|
E||--7----7--7--7--7--7--7--7--7--7--|--3----3--3--3--3-----2-----1-----|



----------------------|-----------------------|
----------------------|--10b------------L-----|
---------------9------|-----------------------|
--2--2--L-------------|--------------------2--|
--2--2--L-------------|--------------------2--|
--0--0--L-------------|--------------------0--|

Verse

E||--------------------|-------------------------|----------------------|
B||--------------------|-------------------------|----------------------|
G||--------------------|----------4-----4--4-----|----------------------|
D||--4-----------------|----------4-----4--4--2--|--4----------------2--|
A||--4-----------------|----------2-----2--2--2--|--4----------------2--|
E||--2-----------------|----------------------0--|--2----------------0--|


-------------------------|--------------------|-------------------------|
-------------------------|--------------------|-------------------------|
-------------------------|--------------------|----------4-----4--4-----|
--L--2--L-------------2--|--4-----------------|----------4-----4--4--2--|
--L--2--L-----7~------2--|--4-----------------|----------2-----2--2--2--|
--L--0-----0----------0--|--2-----------------|----------------------0--|


----------------------|--------------------------|
----------------------|--------------------------|
----------------------|--------------------------|
--4----------------2--|--2--2--2--2--2--2--2--2--|
--4----------------2--|--2--2--2--2--2--2--2--2--|
--2----------------0--|--0--0--0--0--0--0--0--0--|


Pre Chorus

E||------------------------|---------------------------|
B||------------------------|---------------------------|
G||--4----4--4--4--4-------|--4--4--4------------------|
D||--4----4--4--4--4-------|--4--4--4------------5~----|
A||--2----2--2--2--2--0----|--2--2--2--2~--L--5--------|
E||------------------------|---------------------------|



------------------------|-------------------------------|
------------------------|-------------------------------|
--4----4--4--4--4-------|--4--4--4--------------<>5~----|
--4----4--4--4--4-------|--4--4--4---------<>5----------|
--2----2--2--2--2--0----|--2--2--2--2~--L---------------|
------------------------|-------------------------------|


------------------------|---------------------------|-----------------------|
------------------------|---------------------------|-----------------------|
--4----4--4--4--4-------|--4--4--4------------------|--4----4--4--4--4--2---|
--4----4--4--4--4-------|--4--4--4------------5~----|--4----4--4--4--4--2---|
--2----2--2--2--2--0----|--2--2--2--2~--L-5---------|--2----2--2--2--2--0---|
------------------------|---------------------------|-----------------------|



-------------------|
-------------------|
--L----------------|
--L----------------|
--L----------------|
-------------------|

Chorus

E||---------------------|-------------------|---------------------|
B||----------------3----|--L----------------|---------------------|
G||----------------2----|--L----------------|--4------------------|
D||--2------5------0----|--L----------------|--4------5------2----|
A||--2------5------0----|--L----------------|--2------5------2----|
E||--0------3-----------|-------------------|---------3------0----|


-------------------|---------------------|-------------------|
-------------------|----------------3----|--L----------------|
-------------------|----------------2----|--L----------------|
--L----------------|--2------5------0----|--L----------------|
--L----------------|--2------5------0----|--L----------------|
--L----------------|--0------3-----------|-------------------|



---------------------|-------------------|
---------------------|-------------------|
--4------------------|-------------------|
--4------5------2----|--L----------------|
--2------5------2----|--L----------------|
---------3------0----|--L----------------|


Chords under solo


E||---------------------|---------------------|---------------------|
B||---------------------|---------------------|---------------------|
G||---------------------|---------------------|---------------------|
D||--4--4---------------|------------------2--|--4--4---------------|
A||--4--4---------------|------------------2--|--4--4---------------|
E||--2--2---------------|------------------0--|--2--2---------------|



---------------------|---------------------|---------------------|
---------------------|---------------------|---------------------|
---------------------|---------------------|---------------------|
------------------2--|--4--4---------------|------------------2--|
------------------2--|--4--4---------------|------------------2--|
------------------0--|--2--2---------------|------------------0--|


---------------------|-------------------|------------------------|
---------------------|-------------------|------------------------|
---------------------|-------------------|--4----4--4--4--4-------|
--4--4---------------|-------------------|--4----4--4--4--4-------|
--4--4---------------|-------------------|--2----2--2--2--2--0----|
--2--2---------------|-------------------|------------------------|



--------------------------|------------------------|------------------------|
--------------------------|------------------------|------------------------|
--4--4--4--4--4--4--4--4--|--4----4--4--4--4-------|--4--4--4--4--4--4--4--4|
--4--4--4--4--4--4--4--4--|--4----4--4--4--4-------|--4--4--4--4--4--4--4--4|
--2--2--2--2--2--2--2--2--|--2----2--2--2--2--0----|--2--2--2--2--2--2--2--2|
--------------------------|------------------------|------------------------|



------------------------|--------------------------|------------------------|
------------------------|--------------------------|------------------------|
--4----4--4--4--4-------|--4--4--4--4--4--4--4--4--|--4----4--4--4--4--2----|
--4----4--4--4--4-------|--4--4--4--4--4--4--4--4--|--4----4--4--4--4--2----|
--2----2--2--2--2--0----|--2--2--2--2--2--2--2--2--|--2----2--2--2--2--0----|
------------------------|--------------------------|------------------------|



-------------------||
-------------------||
--L----------------||
--L----------------||
--L----------------||
-------------------||

Duration Legend
---------------
W - whole
H - half
Q - quarter
E - 8th
S - 16th
T - 32nd
X - 64th
. - note dotted
|-n-| - n-tuplets


Tablature Legend
----------------
L - tied note
x - dead note
NH - natural harmonic
b - bend
\n - tremolo bar dive
~ - vibrato 
Tap to rate this tab
 
# A B C D E F G H I J K L M N O P Q R S T U V W X Y Z