Guitaretab - guitar tabs
Song name
# A B C D E F G H I J K L M N O P Q R S T U V W X Y Z

Nuclear Assault - Butt Fuck tab

This is my first tab, so take it easy on me. But I think I figured out the
majority of the thrash metal part of the song. I will not tab the blues
segment in the middle because I don't know blues and would mess it up. Bear
with me if I make any mistakes!
-Jack Hatte

Song: "Butt Fuck"
Artist: Nuclear Assault
Album: The Plague
Tuning: Standard

Opening a:
(Play this 4X slow)
E  |-----------------------------------------------------------|
B  |-----------------------------------------------------------|
G  |-----------------------------------------------------------|
D  |----------3----------------------------3-------------------|
A  |----------1----------------------------1---------------1~--|
E  |--0-0-0-0---0-0-0-0-0-0-1~-0-0-0-0-0-0---0-0-0-0-0-0-1-----|
[ Tab from: ]
Opening b:
(Play this 4X, getting steadily faster as you progress)
E  |---------------------------------------------------------|
B  |---------------------------------------------------------|
G  |---------------------------------------------------------|
D  |----------3---------------------------3---------------3--|
A  |----------1-------------3-------------1-------------3-1--|
E  |--0-0-0-0---0-0-0-0-0-0-1-0-0-0-0-0-0---0-0-0-0-0-0-1----|

(Play 4X really, really fast)
E  |---------------------|
B  |---------------------|
G  |---------------------|
D  |--9/10-9/10-9/10-10--|
A  |--7/8--7/8--7/8--8---|
E  |---------------------|

(ButtFuckButtFuckButtFuck Yeah!)
E  |---------------------|
B  |---------------------|
G  |---------------------|
D  |---------------------|
A  |--9/10-9/10-9/10-10--|
E  |--7/8--7/8--7/8--8---|

Play Pre-Chorus and Chorus again one more time, then go into a lengthy blues
solo/monologue, then come back and play Pre-Chorus 8x, then Chorus 4x, then
Pre-Chorus 4x, then Chorus 4X, then play

E  |------------------------------------------------------------------------|
B  |------------------------------------------------------------------------|
G  |------------------------------------------------------------------------|
D  |--9/10-9/10-9/10-9/10-9/10-9/10-9/10-9/10-9/10-9/10-9/10-9/10-9/10-9/10-|
A  |--7/8--7/8--7/8--7/8--7/8--7/8--7/8--7/8--7/8--7/8--7/8--7/8--7/8--7/8--|
E  |------------------------------------------------------------------------|

Closing (Continued):
E  |---------|
B  |---------|
G  |---------|
D  |--9---9--|
A  |--7-9-7--|
E  |----7----|
Related for Butt Fuck tab