Song name
# A B C D E F G H I J K L M N O P Q R S T U V W X Y Z

Nuclear Assault - Mr Softee Theme tab

Mr. Softee Theme
Game Over
Nuclear Assault

Standard Tune

Guitar 1 
|-----------------------------------------|
|-8-10-8-------------------------8--------|
|--------9-7----7--------------7---9------|
|------------10---10-7-10-9-10-------10---|
|-----------------------------------------|
|-----------------------------------------|
                                            
|-----------------------------------------|
|-8-10-8-------------------------8--------|
|--------9-7----7--------------7----------|
|------------10---10-7-10-9-10-----10-----|
|-----------------------------------------|
|-----------------------------------------|
Tap to rate this tab
# A B C D E F G H I J K L M N O P Q R S T U V W X Y Z