Song name
# A B C D E F G H I J K L M N O P Q R S T U V W X Y Z

Nuclear Assault - Mothers Day tab

-------------------------------------------------------------------------------
Nuclear Assault - Mother's Day
-------------------------------------------------------------------------------
Tabbed by: Pus_Head
Email: AustrianJew@gmail.com

Tuning: Half Step Down

Intro
e|---------------------------------------------------------------------------|
B|---------------------------------------------------------------------------|
G|---------------------------------------------------------------------------|
D|---------------------------------------------------------------------------|
A|----4-------4-------4-------4----------------------------------------------|
E|000-2---000-2---000-2---000-2----------------------------------------------|
  ***     ***     ***     ***
:02                                                                        x2
e|---------------------------------------------------------------------------|
B|---------------------------------------------------------------------------|
G|---------------------------------------------------------------------------|
D|--3-2-------3-2-------3-2-------3-2----------------------------------------|
A|2-----3---2-----3---2-----3---2-----3--------------------------------------|
E|---------------------------------------------------------------------------|

:07                                                                        x2
e|---------------------------------------------------------------------------|
B|---------------------------------------------------------------------------|
G|---------------------------------------------------------------------------|
D|9-5-----9-5----------------------------------------------------------------|
A|7-3-5-3-7-3-5-3-------4-------4-------4-------4----------------------------|
E|----3-1-----3-1---000-2---000-2---000-2---000-2----------------------------|
                    ***     ***     ***     ***
:16                                                                        x2
e|---------------------------------------------------------------------------|
B|---------------------------------------------------------------------------|
G|---------------------------------------------------------------------------|
D|--3-2-------3-2-------3-2-------3-2----------------------------------------|
A|2-----3---2-----3---2-----3---2-----3--------------------------------------|
E|---------------------------------------------------------------------------|

:21                                                                        x2
e|---------------------------------------------------------------------------|
B|---------------------------------------------------------------------------|
G|---------------------------------------------------------------------------|
D|9-5-----9-5----------------------------------------------------------------|
A|7-3-5-3-7-3-5-3-------4-------4-------4-------4----------------------------|
E|----3-1-----3-1---000-2---000-2---000-2---000-2----------------------------|
                    ***     ***     ***     ***
************************************

| /   slide up
| \   slide down
| h   hammer-on
| p   pull-off
| ~   vibrato
| +   harmonic
| x   Mute note
| b   Bend
| pb  Pre-bend
| br  Bend release
| pbr Pre-bend release
| brb Bend release bend

************************************
Tap to rate this tab
 
# A B C D E F G H I J K L M N O P Q R S T U V W X Y Z