Guitaretab - guitar tabs
Song name
# A B C D E F G H I J K L M N O P Q R S T U V W X Y Z

Nuclear Assault - Torture Tactics tab

Nuclear Assault - Torture Tactics
Submitted By: Nick S.
EMail: Pantera9560@aol.com
HANDLE WITH CARE (1989)

As promised in my "Surgery" tab, here's another N. Assault gtr. tab from HWC.
Remember to use the subj. "Torture Tactics tabs" if you E-mail me. Click 
where it says "Click here to view in full screen" so it looks right.

Riff 1 
D----------3------------------------
A-4--2--3--1--2---------------------
E-2--0--1-----0--0*-0*-0*-0*-0*-0*-0*-0*----

Riff 1 shortened
D----------3---
A-4--2--3--1---
E-2--0--1------
[ Tab from: http://www.guitaretab.com/n/nuclear-assault/42132.html ]
Riff 2
A--3-3-3-3-3-3-3-3-3-4-4-3-3-3-3-3-3-3-3-3-4-4-3---
E--1-1-1-1-1-1-1-1-1-2-2-1-1-1-1-1-1-1-1-1-2-2-1---

Riff 3 (Gtr 1-let these chords ring a little bit. Gtr 2-Screw around w/ whammy bar)
D--3---------------
A--1---------2-----
E------------0-----

Song order:

Riff 1 4x
Riff 1 shortened once
Riff 2 once
Riff 1 shortened once
Riff 1 4x
Riff 1 shortened once
Riff 2 once
Riff 1 shortened once
Riff 3 5x (both gtrs.)
Riff 1 4x
Riff 1 shortened once
Riff 2 once
Riff 1 shortened once
Riff 1 4x
Riff 1 shortened once
Riff 2 once
Riff 1 shortened once
Riff 3 5x (Both gtrs.)
Riff 1 once (without palm-muted E string) and that's it. Keep thrashin!
Related for Torture Tactics tab
Advertisement will be closed in 10 seconds