Song name
# A B C D E F G H I J K L M N O P Q R S T U V W X Y Z

Nuclear Assault - My America tab

Band:  Nuclear Assault
Album: Game Over
Song:  My America

Copyright (c)  (Under One Flag) (1986)
Version 1.0 - (28/03/06)

Transcribed By: Steve
Email:          stephen.elvidge1@ntlworld.com

.  - palm mute           /  - slide up to
\  - slide down to       ~  - vibrato
h  - hammer on           b  - Bend
p  - pull off            Suffixes for bend
t  - tap                 f  - full bend    h - half bend
ph - pinched harmonic    q  - quarter bend t - tap bend
*  - see comment         ^  - Hold bend    r release bend
x  - Stuccatto           ~  - vibrato bend
,  - slight palm mute    () - ghost note, sustained note
"  - tremolo note        <> - Trill

Tunning E A D G B E
 

 Bass on own

  ph ph ph ph ph
E-------------------|
B-------------------|
G-5b-5b-5b-5b-5b----|
D----------------8\-|
A----------------8\-|
E----------------8\-|
 
 Main Riff
             
E----------------------------|
B----------------------------|
G-4-4---4-4---5---5-2--2-2-2-|
D-4-4---4-4---5-5---2--2-2-2-|
A-2-2p0-2-2p0-3-----0--0-0-0-|
E----------------------------| Rpt 5 X

 Lead fill 1 
           ph [PM]~~
E---------------------|
B----------4b---------|
G-<5>---------5-0-2---|
D----<5>--------------|
A-------<5>-----------|
E---------------------|

 Lead fill 2
  ph ph ph ph ph ph ph ph
E---------------------------|
B---------------------------|
G-5b-5b-5b-5b-5b-5b-5b-5b---|
D---------------------------|
A---------------------------|
E---------------------------|

E------------------------------|
B------------------------------|
G-4-4---4-4---5---5-2---(2)----|
D-4-4---4-4---5-5---2---(2)----|
A-2-2p0-2-2p0-3-----0---(0)----|
E------------------------------| 
 
   PM  PM   PM   PM
E----------------------|
B----8----8----8----8--|
G----9----9----9----9--|
D----9----9----9----9--|
A-7777-7777-7777-7777--|
E-000--000--000--000---|




END

Tap to rate this tab
# A B C D E F G H I J K L M N O P Q R S T U V W X Y Z