Guitaretab - guitar tabs
Song name
# A B C D E F G H I J K L M N O P Q R S T U V W X Y Z

Nuclear Rabbit - Phat Pig Phong tab

Tabbed by: Kenvyn123
Email:Kenvyn4@hotmail.com

Tuning: Drop D

This is my my first Tab so could i have some reviews if posable and plaese go easy on me. :)

                 
e|--------|--------|--------|--------|
B|--------|--------|--------|--------|
G|--------|--------|--------|--------|
D|--------|--------|--------|--------| X5 
A|2-2-3-2-|2-2-3-2-|2-2-3-2-|4-5-4-5-|
D|2-2-3-2-|2-2-3-2-|2-2-3-2-|4-5-4-5-|
  pm_________________________________:

  (same size bars as the ones above)
e|-14-14-14-14-14-14-14-14|
B|-13-13-13-13-13-13-13-13|
G|-17-17-17-17-17-17-17-17| X4 
D|------------------------|
A|------------------------|
D|------------------------|
[ Tab from: http://www.guitaretab.com/n/nuclear-rabbit/103223.html ]
e|--------|--------|--------|--------|
B|--------|--------|--------|--------|
G|--------|--------|--------|--------|
D|--------|--------|--------|--------| X3
A|2-2-3-2-|2-2-3-2-|2-2-3-2-|4-5-4-5-|
D|2-2-3-2-|2-2-3-2-|2-2-3-2-|4-5-4-5-|
 pm__________________________________:


e|-14-14-14-14-14-14-14-14|
B|-13-13-13-13-13-13-13-13|
G|-17-17-17-17-17-17-17-17| X4 
D|------------------------|
A|------------------------|
D|------------------------|

e|--------|--------|--------|--------|
B|--------|--------|--------|--------|
G|--------|--------|--------|--------|
D|--------|--------|--------|--------| X3
A|2-2-3-2-|2-2-3-2-|2-2-3-2-|4-5-4-5-|
D|2-2-3-2-|2-2-3-2-|2-2-3-2-|4-5-4-5-|
 pm__________________________________:

Last time Dont Palm Mute the last bar.

there you go and enjoy.
Related for Phat Pig Phong tab
×
Phat Pig Phong