Song name
# A B C D E F G H I J K L M N O P Q R S T U V W X Y Z

Nuclear Rabbit - Santa Clause Is Selling Crack tab

Tabbed by:marvinbill
Email:

Tuning:standard
this song is played with out a pick, really fast.
intro
e|--9--x-9--9---9--8----9-x--9-9--7--------------------------------------------|
B|--9--x-9--9---9--8----9-x--9-9-----11-9-7-9-11-7--9--------------------------|
G|--8--x-8--8---8--7----8-x--8-8--------------------8--------------------------|
D|--9--x-9--9---9--8----9-x--9-9--------------------9--------------------------|
A|-----------------------------------------------------------------------------|
E|-----------------------------------------------------------------------------|

e|--9-x-9-9--9-8---9-9-x-x---------------------|
B|--9-x-9-9--9-8---9-9-x-x-10-x-x-x-x-9-x-x-8--|
G|--8-x-8-8--8-7---8-8-x-x-9--x-x-x-x-8-x-x-7--|
D|--9-x-9-9--9-8---9-9-x-x-10-x-x-x-x-9-x-x-8--|
A|---------------------------------------------|
E|---------------------------------------------|play that whole thing twice.
            verse
e|-9-x-x-9-x-x-9-9-8---9-9-x-x-9-x-x-9--12-12-12-12-12-12----------------------|
B|-9-x-x-9-x-x-9-9-8---9-9-x-x-9-x-x-9--12-12-12-12-12-12----------------------|
G|-8-x-x-8-x-x-8-8-7---8-8-x-x-8-x-x-8--11-11-11-11-11-11----------------------|
D|-9-x-x-9-x-x-9-9-8---9-9-x-x-9-x-x-9--12-12-12-12-12-12----------------------|
A|-----------------------------------------------------------------------------|
E|-----------------------------------------------------------------------------|

e|-9-x-x-9-x-x-9-9-8--9-9-x-x--------------------------------------------------|
B|-9-x-x-9-x-x-9-9-8--9-9-x-x-10-x-x-x-x-9-x-x-8-------------------------------|
G|-8-x-x-8-x-x-8-8-7--8-8-x-x-9--x-x-x-x-8-x-x-7-------------------------------|
D|-9-x-x-9-x-x-9-9-8--9-9-x-x-10-x-x-x-x-9-x-x-8-------------------------------|
A|-----------------------------------------------------------------------------|
E|-----------------------------------------------------------------------------|
        now do the first part once and then do this
e|-9-x-x-9--12-12-12--15-15-15-15-15-15--|
B|-9-x-x-9--12-12-12--15-15-15-15-15-15--|
G|-8-x-x-8--11-11-11--14-14-14-14-14-14--|
D|-9-x-x-9--12-12-12--15-15-15-15-15-15--|
A|---------------------------------------|
E|---------------------------------------|those are all the diferent parts of the verse, 
out the order


e|------------------------------------------------------------------------------|
B|-12-x-12-x-12-x-12--14-x-14--11-11-11-----------------------------------------|
G|-11-x-11-x-11-x-11--13-x-13--10-10-10--2X-------------------------------------|
D|-12-x-12-x-12-x-12--14-x-14--11-11-11-----------------------------------------|
A|------------------------------------------------------------------------------|
E|------------------------------------------------------------------------------|

e|-----------------------------------------------------------------------------|
B|-x-12-x-14-x-15-x-14--14-14-14--11-11-11-------------------------------------|
G|-x-11-x-11-x-11-x-11--13-13-13--10-10-10-------------------------------------|
D|-x-12-x-12-x-12-x-12--14-11-14--11-11-11-------------------------------------|
A|-----------------------------------------------------------------------------|
E|-----------------------------------------------------------------------------|
    the brige is pretty easy, u can figure it out

| /  slide up
| \  slide down
| h  hammer-on
| p  pull-off
| ~  vibrato
| +  harmonic
| x  Mute note
Tap to rate this tab
# A B C D E F G H I J K L M N O P Q R S T U V W X Y Z