Song name
# A B C D E F G H I J K L M N O P Q R S T U V W X Y Z

Nudeswirl - When Im Dead tab

Good song, really easy, too.

Main riff
e|-------------------|
B|-------------------|
G|-------------------| x2
D|-9-9-9-x-9-x-9-9-9-|
A|-9-9-9-x-9-x-9-9-9-|
E|-7-7-7-x-7-x-7-5-5-|

e|-----------------|
B|-----------------|
G|-----------------|
D|-8-8-8-x-8\-5w/7-|
A|-8-8-8-x-8\-5w/7-|
E|-6-6-6-x-6\-3w/5-|

Transition to Verse
e|-------------|
B|-------------|
G|-4p2p0-------|
D|-------4p2p0-|
A|-------------|
E|-------------|

Solo (x2)
e|-------------------------------------|
B|-------------------------------------|
G|-------------------------------------| x3
D|-17p16-16-16-16-16-16-16-16-16b-16br-|
A|-------------------------------------|
E|-------------------------------------|

e|-----------------------------|
B|-----------------------------|
G|-/18-18-18-18-18-18-18-19br\-|
D|-----------------------------|
A|-----------------------------|
E|-----------------------------|

e|----------------------------|
B|----------------------------|
G|-12---12--------------------|
D|-15b--15-12-12-12-15-12-12\-|
A|----------------------------|
E|----------------------------|

Outro x4
e|----------------------|
B|----------------------|
G|----------------------|
D|----------------------|
A|-12\9-9-9-x-9-x-9-9-9-|
E|-10\7-7-7-x-7-x-7-5/7-|

That's the song. Pretty easy all in all.
Tap to rate this tab
 
# A B C D E F G H I J K L M N O P Q R S T U V W X Y Z