Song name
# A B C D E F G H I J K L M N O P Q R S T U V W X Y Z

Nudeswirl - F Sharp tab

Just slightly different from the other tab's version. Here's what I transcribed.
The song is played with envelope filter.

Main riff
e|---------------------|
B|---------------------|
G|---------------------|
D|-4-x-x-4-x-4-4-x-7-2-|
A|-4-x-x-4-x-4-4-x-7-2-|
E|-2-x-x-2-x-2-2-x-5-0-|

Chorus
e|----0-------------------------|
B|----0-------------------------|
G|--------------4p2p0-----------|
D|-2---------4-------4p2p0------|
A|-2---------4------------4p2p0-|
E|-0---------2------------------|

Solo
e|-------------------------------|
B|-------------------------------|
G|-------------------------------|
D|-4-x-x-4-x-4-4-x-7-2-4---------|
A|-4-x-x-4-x-4-4-x-7-2-4---------|
E|-2-x-x-2-x-2-2-x-5-0-2---//14b-|

e|---------------------------------------------------------------|
B|------14--14--16b--14------------------------------------------|
G|-----------------------15--15--16------------------------------|
D|---16------------------------------17--16----------------------|
A|---------------------------------------------------------------|
E|---------------------------------------------------------------|

e|-----------------------------------------------------------------|
B|--------------------14--14--16--16b--14--------------------------|
G|--------15--15--16-----------------------15----------------------|
D|-16-17---------------------------------------16b--14--16p--14----|
A|--------------------------------------------------------------12-|
E|-----------------------------------------------------------------|

e|-----------------------------------------------------------------|
B|-----------14-14-------------------------------------------------|
G|---------------------16-16--15---15--15-16-15--------16-15-------|
D|-16-16----------------------------------------17-16--------17-16-|
A|-----------------------------------------------------------------|
E|-----------------------------------------------------------------|

e|----------------------------------------------------------------|
B|----------------------------------------------------------------|
G|----------------------------------------------------------------|
D|-16b-14-16-x-x-x-x---16b-14-16b/14-------feedback---------------|
A|-----------x-x-x-x----------------------------------------------|
E|-----------x-x-x-x----------------------------------------------|
|-----4--times----------------------------------------------------|

Outro
e|-------------12-12-12-12-|
B|-------------11-11-11-11-|
G|-6-x-x-6-x---11-11-11-11-|
D|-4-x-x-4-x---------------|
A|-------------------------|
E|-------------------------|

e|-------------12-12-12-12-|
B|-------------11-11-11-11-|
G|-6-x-x-6-x---11-11-11-11-|
D|-4-x-x-4-x---------------|
A|-------------------------|
E|-------------------------|

e|-------------12-12-12-12-|
B|-------------11-11-11-11-|
G|-6-x-x-6-x---11-11-11-11-|
D|-4-x-x-4-x---------------|
A|-------------------------|
E|-------------------------|

e|-------------12-12-12-12/-|
B|-------------11-11-11-11/-|
G|-6-x-x-6-x---11-11-11-11/-|
D|-4-x-x-4-x----------------|
A|--------------------------|
E|--------------------------|

e|-------------12-12-12-12-|
B|-------------11-11-11-11-|
G|-6-x-x-6-x---11-11-11-11-|
D|-4-x-x-4-x---------------|
A|-------------------------|
E|-------------------------|

e|-------------12-12-12-12-|
B|-------------11-11-11-11-|
G|-6-x-x-6-x---11-11-11-11-|
D|-4-x-x-4-x---------------|
A|-------------------------|
E|-------------------------|

e|-------------12-12-12-12-|
B|-------------11-11-11-11-|
G|-6-x-x-6-x---11-11-11-11-|
D|-4-x-x-4-x---------------|
A|-------------------------|
E|-------------------------|

e|-------------|
B|-------------|
G|-------2-4---|
D|-4-4-4-2-4-2-|
A|-4-4-4-0-2-2-|
E|-2-2-2-----0-|

e|-------------12-12-12-12-|
B|-------------11-11-11-11-|
G|-6-x-x-6-x---11-11-11-11-|
D|-4-x-x-4-x---------------|
A|-------------------------|
E|-------------------------|

e|-------------12-12-12-12-|
B|-------------11-11-11-11-|
G|-6-x-x-6-x---11-11-11-11-|
D|-4-x-x-4-x---------------|
A|-------------------------|
E|-------------------------|

e|-------------12-12-12-12-|
B|-------------11-11-11-11-|
G|-6-x-x-6-x---11-11-11-11-|
D|-4-x-x-4-x---------------|
A|-------------------------|
E|-------------------------|

e|--------------------|
B|--------------------|
G|-------2-4----------|
D|-4-4-4-2-4-2-4~---4-|
A|-4-4-4-0-2-2-4~---4-|
E|-2-2-2-----0-2~---2-|
Tap to rate this tab
 
# A B C D E F G H I J K L M N O P Q R S T U V W X Y Z