Guitaretab - guitar tabs
Song name
# A B C D E F G H I J K L M N O P Q R S T U V W X Y Z
Home / N / Nujabes / Filo tab

Nujabes - Filo tab

-------------------------------------------------------------------------------
			     F.I.L.O - Shing02/Nujabes
-------------------------------------------------------------------------------
Tabbed by: EJ 
Email: ejvillaluz@hotmail.com

Tuning: Standard E A D G B E
Listen to the song to get the rhythm
The song is repetitive so its pretty easy
Intro

e|------------------------------------------------|
B|-12------10------------12--------10-------------|
G|------------------------------------------------|
D|---10-10---10-10-10-10-----10-10----10-10-10-10-|
A|----9--9----9--9--9--9------9--9-----9--9--9--9-|
e|------------------------------------------------|

E|------------------------------------------------|
B|-12------10------------12--------10-------------|
G|------------------------------------------------|
D|---10-10---10-10-10-10-----10-10----10-10-10-10-|
A|----9--9----9--9--9--9------9--9-----9--9--9--9-|
E|------------------------------------------------|



Verse1
Part1 X4

Lord, if they only knew them nights it took 
e|---------------------------------------------|
B|-13------------------------10-13-12-10-------|
G|---------------------------------------12-10-|
D|-----10-10-10-10-10-10-10--------------------|
A|------9--9--9--9--9--9--9--------------------|
E|---------------------------------------------|

e|----------------------------------------------------------|
B|-------------------------------10-10-10-------------------|
G|-9-10-12-9-9--10--9-9--12--9----9--9--9-------------------|
D|-----------9--10----9--12------10-10-10---10-10-10-10-10--|
A|-------------------------------------------9--9--9--9--9--|
E|----------------------------------------------------------|

Verse 1
Part2

Street soldiers cut without severance,

e|----------------------------------------------------------|
B|----10----------------------------------------------------|
G|-10----12-10-9-------------9---------------9--------------|
D|---------------12-10-10h12----10-10-10-10----10-10-10-----|
A|-------------------------------9--9--9--9-----9--9--9-----|
E|----------------------------------------------------------|

e|----------------------------------------------------------|
B|----------------------------------------------------------|
G|9---------9----------9------------9--12--9--14--9--16--9-9|
D|--10-10-----10-10-10---10-10-10---9--12--9--14--9--16--9-9|
A|---9--9------9--9--9----9--9--9---------------------------|
E|----------------------------------------------------------|


Verse 2 
This verse is basically the same just a few variations
First part

Thirstin' first drop just wet my appetite

e|------------------------------------------------|
B|-12------10------------12--------10-------------|
G|------------------------------------------------|
D|---10-10---10-10-10-10-----10-10----10-10-10-10-|
A|----9--9----9--9--9--9------9--9-----9--9--9--9-|
e|------------------------------------------------|

E|------------------------------------------------|
B|-12------10------------12--------10-------------|
G|------------------------------------------------|
D|---10-10---10-10-10-10-----10-10----10-10-10-10-|
A|----9--9----9--9--9--9------9--9-----9--9--9--9-|
E|------------------------------------------------|

Verse 2
2nd part

Live life like a testimony

e|---------------------------------------------|
B|-13------------------------10-13-12-10-------|
G|---------------------------------------12-10-|
D|-----10-10-10-10-10-10-10--------------------|
A|------9--9--9--9--9--9--9--------------------|
E|---------------------------------------------|

e|-----------------------------------------------------------|
B|-------------------------------10-10-10--------------------|
G|-9-10-12-9-9--10--9-9--12--9----9--9--9--------------------|
D|-----------9--10----9--12------10-10-10---10-10-10-10-10---|
A|-------------------------------------------9--9--9--9--9---|
E|-----------------------------------------------------------|

e|-----------------------------------------------------------|
B|----10-----------------13-13-13--13------------------------|
G|-10----12-10-9---------------------------------------------|
D|---------------12-10------------------10---10--------------|
A|---------------------------------------9----9--------------|
E|-----------------------------------------------------------|
[ Tab from: http://www.guitaretab.com/n/nujabes/110735.html ]
e|-----------------------------------------------------------|
B|-10-13-12-10-----------------------------10-10-10----------|
G|-------------9-10-12-9-9--10-9-9--12--9---9--9--9----------|
D|-----------------------9--10---9--12-----10-10-10-10-10-10-|
A|---------------------------------------------------9--9--9-|
E|-----------------------------------------------------------|

e|-----------------------------------------------------------|
B|----10-----------------13-13-13--13------------------------|
G|-10----12-10-9---------------------------------------------|
D|---------------12-10------------------10---10--------------|
A|---------------------------------------9----9--------------|
E|-----------------------------------------------------------|


e|-----------------------------------------------------------|
B|-10-13-12-10-----------------------------10-10-10----------|
G|-------------9-10-12-9-9--10-9-9--12--9---9--9--9----------|
D|-----------------------9--10---9--12-----10-10-10-10-10-10-|
A|---------------------------------------------------9--9--9-|
E|-----------------------------------------------------------|

e|---------------------------------------------|
B|-13------------------------10-13-12-10-------|
G|---------------------------------------12-10-|
D|-----10-10-10-10-10-10-10--------------------|
A|------9--9--9--9--9--9--9--------------------|
E|---------------------------------------------|

e|-----------------------------------------------------------|
B|-------------------------------10-10-10--------------------|
G|-9-10-12-9-9--10--9-9--12--9----9--9--9--------------------|
D|-----------9--10----9--12------10-10-10---10-10-10-10-10---|
A|-------------------------------------------9--9--9--9--9---|
E|-----------------------------------------------------------|

e|----------------------------------------------------------|
B|----10----------------------------------------------------|
G|-10----12-10-9-------------9---------------9--------------|
D|---------------12-10-10h12----10-10-10-10----10-10-10-----|
A|-------------------------------9--9--9--9-----9--9--9-----|
E|----------------------------------------------------------|

e|----------------------------------------------------------|
B|----------------------------------------------------------|
G|9---------9----------9------------9--12--9--14--9--16--9-9|
D|--10-10-----10-10-10---10-10-10---9--12--9--14--9--16--9-9|
A|---9--9------9--9--9----9--9--9---------------------------|
E|----------------------------------------------------------|

Last Part
Intro
Verse 1 Part 1 X4
Verse 1 Part 2 X1



F.I.L.O

Lord, if they only knew them nights it took
Burnt candles by the dozen to ignite the soul fire
Sheer energy to release to melt the heart
Mind starved, voice craved onto wax (and still get taxed)
Relax, unrest unless undressed to the core
Ever so slowly, wash away old skin like springs of sulfur
So far so good, what's life got to offer?
Youth stare curiously analyze the facts
Who's there to encourage give a pat on their back
How come society wanna grow and ignore small dreams
big team, now every work is a chore
I adore each step, hop skip a cadence
Travel distant in the age of decadence
Do this in reverence to the older veterans
Stripes on their chest plus a chip on their shoulder
Street soldiers cut without severance,
But keep hustling anyways for the L or the F of it
Effervescent light guide the way,
Fear no evil, once lost now found
Like the last man down in the towering inferno of Babylon
First In Last Out

Thirstin' first drop just wet my appetite
But couldn't satisfy my craving for beats
Wrap tight like a Christmas gift
'Tis night is an eve for a generation to uplift
Live life like a testimony
Simple rhymes in difficult times help a friend
Through a lonely tunnel at the end,
Every maze a funnel into a wine bottle
And corked inside a message so mind boggling, a puzzle
Amazed at the grace having reached a goal
Knock twice on the gate heaven preach a soul
True knowledge of self shine brighter than all
For one part getting polished you better the whole
The sum of the characters carry over your role
24-karat gold, each day is a jewel
Case closed when the end credits roll
Self-representative and elected, yes I
Give and get give back to the constituents
Sit you in a chair and break down the affairs
There's nuthin fashionable
About arriving late in the game and acting OG
Cuz you can't pay dues with credit or cash
Quicktime soft players streaming all the flash
So I'm sticking copper pins into media outlets
Then I hop up in a black van and I'm out
Let's get wit the program, drop the Dow Jonesing down
We keep underground dowsing
Microphones iron casting, everlasting sound
Blasting, no doubt
First In Last Out!

F.I.L.O, I'd rather do nuthin else
If I follow my heart to the last pulse
Like the last man down in the towering inferno of Babylon
First In Last Out

 
Related for Filo tab
Advertisement will be closed in 10 seconds