Song name
# A B C D E F G H I J K L M N O P Q R S T U V W X Y Z

Nujabes - Counting Stars tab

Help us improve GuitareTab! Take a short survey!
"Counting Stars" from Hydeout Productions Collection #2
Composed by: Nujabes
Tabbed by: ~X~


Main riff:

e|--------------5-------------------5--------------------------------|
B|------7--7--5----8-7-5----7--7--5----8-7-5----5--5--3----5--5--3---|
G|----------------------------------------------6--6--4----6--6--4---|
D|-------------------------------------------------------------------|
A|-------------------------------------------------------------------|
E|-------------------------------------------------------------------|


~2:30:

e|--------------------------5--5--5--5-5---2--2----2-2--2--2--2------|
B|------7-5-7-5-7-5-7-5-7-7--------------7-5--5----5-5--5--5--5------|
G|-----------------------------------------6--6----6-6--6--6--6------|
D|-------------------------------------------------------------------|
A|-------------------------------------------------------------------|
E|-------------------------------------------------------------------|

Everything else (e.g. the arpeggio between riffs) is do-it-yourself. Have fun!
Related for Counting Stars tab